>
 >
Bother 100

Bother 100 Guitar Tabs

Stone  Sour - Bother 100 chords, tabs, tablatures, lyrics

Guitar lessons | Add/correct | Request | Top 50 tabs Artists:  A B C D E F G H I J K L M N O P Q R S T U V W X Y Z 0-9

Bother 100 Guitar Tabs – Stone Sour

CD, Sheet music, Poster

Do you like Bother 100? Share with your friends now
Tabs
Tuning: EADGBE (Note: All Are Flats)

Okay this is the correct way i know it. it may seem hard at first but it gets really easy
after awhile.

Intro
Guitar One
(Clean)
-----------------------------------------7-------------------------------- 
7-8----------7--------7--8--7------------8------7-----------7--8--7-------
7------------7-----------------9--7------7------7--------------------9--7-
7-9----------7------------------------9---------7------------------------- 
7------------7------------------------7---------7-------------------------
0------------0------------------------0---------0-------------------------
            Let Ring Throughout
                                            _stop Ringing
----7---------------------------------7--------
----8----7--------7--8--7-------------8-----7--
----7----7-----------------9--7-------7-----7--
7--------7------------------------9---------7--
9--------7------------------------7---------7--
0--------0------------------------0---------0--

Verse
7----------------------------------------------------------------5---------------
7-8-----------7--------------------7-8------7------7/------------X---------------
7-------------7--------------------7--------7------7/----7-------7--------7--X-X-
7-9-----------7--------------------7-9------7------7/----7---7---7-----7--7--X-X-
7-------------7--------------------7--------7------7/----5---5---5-----5--5--X-X-
0-------------0--------------------0--------0------------------------------------

         Ring______________________
8-------7------7--8--7-----------------------7-----------7-8-------7------
7-------7---------------9--7----------9------7-----------7---------7------
9-------7----------------------9--7---9------7-----------7-9-------7------ 
7-------7----------------------7------7------7-----------7---------7------
0-------0-----------------------------0------0-----------0---------0------

-------------------------12--12---12----12--12/-X--7------7--7---
12---12--12------12--12--12--12---12----12--12/-X--7------7--7--- 
12---12--12------12--12--10--10---10----10--10/-X--5------5--5---
10---10--10------10--10------------------------------------------

Chorus
----------------------------------------------------------7---------------X----
------------------7--8------7-----------------------------8---------------X--7-
------------------7---------7-----------------------------7---------------X--8-
9-----------------7--9------7-----------------------------9---------------X--7-
7-------------7-------------7-----------------------------7---------------X--9-
0-------------0-------------0-----------------------------0------------------7-

---------------X---------------------------------------------------------------
7--------------X--7--7---7----7--7-----7--7--8---------------------7--9--------
8--------------X--8--8---8----8--8-----8--8--X---------------------7-----------
7--------------X--7--7---7----7--7-----7--7--9--9--9---------------7--8--------
9--------------X--9--9---9----9--9-----9--9-----7--7-----------7---------------
7-----------------7--7---7----7--7-----7--7-----0--0-----------0---------------

---7---------------------------------------------------------------------------
---7--------------5---------5--5--------7----7---7-----------7-----------------
---7--------------5---------5--5--------7----7---8-----------7-----------------
---7--------------3---------3--3/--5----5----5---5-----------5/---7------------
---0---------------------------------------------------------------------------

Interlude
Strings Only

Repeat Verse

End of Verse
"to digest"
--------------------------------------7------7-----7--7--7--7-----7-----X------
--------------------------------------8------8-----8--8--8--8-----8-----X---7--
12----12----12/--X--7------7---7------7------7-----7--7--7--7-----7-----X---8-
12----12----12/--X--7------7---7------9------9-----9--9--9--9-----9-----X---X--
10----10----10/--X--5------5---5------7------7-----7--7--7--7-----7-----X---9--

7---7----7--7------7----------------------------------------------------------------
8---8----8--8------8------X--5------5---5----5-5----5-------7-----7-7-7-----7--7----
X---X----X--X------X------X--5------5---5----5-5----5-------7-----7-7-7-----7--7----
9---9----9--9------9------X--3------3---3----3-3----3/--5---5-----5-5-5-----5--5/-7-
7---7----7--7------7----------------------------------------------------------------

Repeat Chorus
End of Third Chorus
Guitar One
-------
-------
-7-----
-7-----
-5-----
-------

Solo
Guitar One
7--------------------------------------------------7------------------
8--------------------------------------------------8------------------
7--------------------------------------------------7------------------
9--------------------------------------------------9------------------
7-----------------------------------5--7--/9--/7---7------------------
0----------------------------5--7------------------0------------------

Guitar Three 
----10-8-7-8---------7--8--7------------------------------------------
---------------7--9--------------9---9----7----9------------7---------
------------------------------------------------------7--9------7--9--

Guitar One
-------------------------------------7-----------------------------------------
-------------------------------------8-----------------------------------------
-------------------------------------7-----------------------------------------
-------------------------------------9-----------------------------------------
---------------5--7----/9/----7------7-----------------------------------------
-------5--7--------------------------0-----------------------------------------

Guitar Three                              1                                      
----------------------------------------10---------------------
----------------------------------------10^-----10----------8--
-----9/-------------------------7--9---------------------------
--------------------5--7--7/-9---------------------------------
-------5--7----------------------------------------------------

Guitar One
7--------------------------------------7-------------------------
8--------------------------------------8-------------------------
7--------------------------------------7-------------------------
9--------------------------------------9-------------------------
7-----------------5--7---/9/----7------7-------------------------
0---------5--7-------------------------0-------------------------

Guitar Three
10--8-----------10--8------------------------------------------
-------------------------9---9----------7---9------------------

Repeat Chorus

Intro To Chorus Guitar One Plays The Intro Riff, start at "Cryptic..."
Guitar Four 
(Distortion)
----------
----------
----------
----------
----------
---0------
Get Louder>>>

Chorus
Guitar Two Plays First And Second Chorus Riff
Guitar Four
2-----------------------------------------------------2--------
2-----------------------------------------------------2--------
0-----------------------------------------------------0--------

                                                "won't Let Go"
---2---------------------------------------------2-------------
---2---------------------------------------------2-------------
---0---------------------------------------------0-------------

Chorus Repeat
Guitar Two Plays
--------------------------------------7------7-----7--7--7--7-----7-----X------
--------------------------------------8------8-----8--8--8--8-----8-----X---7--
12----12----12/--X--7------7---7------7------7-----7--7--7--7-----7-----X---8-
12----12----12/--X--7------7---7------9------9-----9--9--9--9-----9-----X---X--
10----10----10/--X--5------5---5------7------7-----7--7--7--7-----7-----X---9--

7---7----7--7------7-------------------------------------------
8---8----8--8------8------X--5------5---5----5-5----5-------7--
X---X----X--X------X------X--5------5---5----5-5----5-------7--
9---9----9--9------9------X--3------3---3----3-3----3/--5---5--
7---7----7--7------7-------------------------------------------

While Guitar Four Plays
2-----------------------------------------------------2--------
2-----------------------------------------------------2--------
0-----------------------------------------------------0--------
                                           
---2---------------------------------------------2-------------
---2---------------------------------------------2-------------
---0---------------------------------------------0-------------

-----------------------------------
-----------------------------------
---------------------------2-------
---------------------------2-------
---------------------------0-------

Outro
Guitar Two Plays Intro Riff
Guitar Four
2--------------------------------------------------------------
2--------------------------------------------------------------
0--------------------------------------------------------------

Once Guitar Two Finishes Fade Out>>

Thats It!!! This was hard to do....





Comments


Popular Stone Sour tabs & chords
Road Hogs Bass Tabs
Take A Number 2 Bass Tabs
Bother Chords
The Conflagration Chords
Wicked Game Chords
Bother 8 Tabs
Get Inside 4 Tabs
Inhale 2 Tabs
Wicked Game 1 Tabs
Zzyzx Rd Tabs


Song lyrics



↑ Back to top | Tablatures and chords are parodies/interpretations of the original songs. You may use it for private study, scholarship, research or language learning purposes only
© 2014 AZChords.com Contact us | Privacy policy | DMCA | Add/correct tabs | Request tabs | Top 50 tabs