» » »

Blue Study Tabs (ver.2)

Artists:  A B C D E F G H I J K L M N O P Q R S T U V W X Y Z # 

Blue Study Tabs (ver.2)

Stone Sour
Rating:
0/5 (0 votes)

Tabs too difficult? Try these video lessons and learn fast.
                Blue Study - Stone Sour


Tuning B F# B E G# C#

I think that its pretty much corrrect. It sounds about right.
I didnt tab out the solo, but it is relativly easy, so tab it yourselves!!

Intro
|-------------------------------------------------------------------|
|-------------------------------------------------------------------|
|---x-x--9-8/9-8/9-9-9-9-9-9--8/11-11-8\7---------------------------|
|---x-x--9-8/9-8/9-9-9-9-9-9--8/11-11-8\7---------------------------|
|---x-x--7-6/7-6/7-7-7-7-7-7--6/9--9--6\5---------------------------|
|---x-x-------------------------------------------------------------|

|-------------------------------------------------------------------|
|-------------------------------------------------------------------|
|---9-8/9-8/9-9-9-9-9-9--8/11-11-8\7--------------------------------|
|---9-8/9-8/9-9-9-9-9-9--8/11-11-8\7--------------------------------| x3
|---7-6/7-6/7-7-7-7-7-7--6/9--9--6\5--------------------------------|
|-------------------------------------------------------------------|

Verse

|---0--------------------0------------12-13-10-12-------------------|
|-----11-12-11-------------11-12-11---------------------------------|
|---------------9-10-7-9--------------------------------------------|
|-------------------------------------------------------------------| x2
|-------------------------------------------------------------------|
|-------------------------------------------------------------------|

Pre-Chorus

|-------------------------------------------------------------------|
|-------------------------------------------------------------------|
|---9-8/9-8/9-9-9-9-9-9--8/11-11-8\7--------------------------------|
|---9-8/9-8/9-9-9-9-9-9--8/11-11-8\7--------------------------------| x4
|---7-6/7-6/7-7-7-7-7-7--6/9--9--6\5--------------------------------|
|-------------------------------------------------------------------|

Chorus

|-------------------------------------------------------------------|
|-------------------------------------------------------------------|
|---x-x-x-x---------------------------------------------------------|
|---x-x-x-x--8-5-7-2------------------------------------------------| x4
|---x-x-x-x--8-5-7-2------------------------------------------------|
|---x-x-x-x--8-5-7-2------------------------------------------------|

Bridge

|-------------------------------------------------------------------|
|-------------------------------------------------------------------|
|---9-8/9-8/9-9-9-9-9-9--8/11-11-8\7--------------------------------|
|---9-8/9-8/9-9-9-9-9-9--8/11-11-8\7--------------------------------| x4
|---7-6/7-6/7-7-7-7-7-7--6/9--9--6\5--------------------------------|
|-------------------------------------------------------------------|
Verse

|---0--------------------0------------12-13-10-12-------------------|
|-----11-12-11-------------11-12-11---------------------------------|
|---------------9-10-7-9--------------------------------------------|
|-------------------------------------------------------------------| x2
|-------------------------------------------------------------------|
|-------------------------------------------------------------------|

Pre-Chorus

|-------------------------------------------------------------------|
|-------------------------------------------------------------------|
|---9-8/9-8/9-9-9-9-9-9--8/11-11-8\7--------------------------------|
|---9-8/9-8/9-9-9-9-9-9--8/11-11-8\7--------------------------------| x4
|---7-6/7-6/7-7-7-7-7-7--6/9--9--6\5--------------------------------|
|-------------------------------------------------------------------|

Chorus

|-------------------------------------------------------------------|
|-------------------------------------------------------------------|
|---x-x-x-x---------------------------------------------------------|
|---x-x-x-x--8-5-7-2------------------------------------------------| x8
|---x-x-x-x--8-5-7-2------------------------------------------------|
|---x-x-x-x--8-5-7-2------------------------------------------------|

Bridge (During Solo)

|-------------------------------------------------------------------|
|-------------------------------------------------------------------|
|---9-8/9-8/9-9-9-9-9-9--8/11-11-8\7--------------------------------|
|---9-8/9-8/9-9-9-9-9-9--8/11-11-8\7--------------------------------| x4
|---7-6/7-6/7-7-7-7-7-7--6/9--9--6\5--------------------------------|
|-------------------------------------------------------------------|

Verse

|---0--------------------0------------12-13-10-12-------------------|
|-----11-12-11-------------11-12-11---------------------------------|
|---------------9-10-7-9--------------------------------------------|
|-------------------------------------------------------------------| x2
|-------------------------------------------------------------------|
|-------------------------------------------------------------------|

Pre-Chorus

|-------------------------------------------------------------------|
|-------------------------------------------------------------------|
|---9-8/9-8/9-9-9-9-9-9--8/11-11-8\7--------------------------------|
|---9-8/9-8/9-9-9-9-9-9--8/11-11-8\7--------------------------------| x4
|---7-6/7-6/7-7-7-7-7-7--6/9--9--6\5--------------------------------|
|-------------------------------------------------------------------|

Chorus

|-------------------------------------------------------------------|
|-------------------------------------------------------------------|
|---x-x-x-x---------------------------------------------------------|
|---x-x-x-x--8--5--7--2---------------------------------------------| x8
|---x-x-x-x--8--5--7--2---------------------------------------------|
|---x-x-x-x--8--5--7--2---------------------------------------------|

Outro

|-------------------------------------------------------------------|
|-------------------------------------------------------------------|
|-------------------------------------------------------------------|
|---15-0-15-0-15-0--------------------------------------------------| x8
|---15-0-15-0-15-0--------------------------------------------------|
|---15-0-15-0-15-0--------------------------------------------------|

|-------------------------------------------------------------------|
|-------------------------------------------------------------------|
|---9-7-9-7--10\9-7-------------------------------------------------|
|---9-7-9-7--10\9-7-------------------------------------------------| x8
|---7-5-7-5--8-\7-5-------------------------------------------------|
|-------------------------------------------------------------------|

|------------------|
|------------------|
|---9^-------------|
|---9^---0---------|
|---7^---0---------|
|--------0---------|
            
Tabs too difficult? Try these video lessons and learn fast.


comments powered by Disqus
↑ Back to top | Tablatures and chords are parodies/interpretations of the original songs. You may use it for private study, scholarship, research or language learning purposes only