» » »

Close To You Tabs (ver.1)

Artists:  A B C D E F G H I J K L M N O P Q R S T U V W X Y Z # 

Close To You Tabs (ver.1)

Stevie Ray Vaughan
Rating:
0/5 (0 votes)

Hard to play? Try these video lessons and learn fast.
                (Intro)
**Please take a moment and rate my sheet music** 
 
Questions/Comments?      

Please feel free to send me a message here on my profile 
-User name- NMKeith74
Also be sure to look for my other Tab listings. 
Enjoy the tabs, have fun and play hard. 


My Playing Guide
_________________________________
                                 |
/ sl. (slide up)                 |
\ sl. (slide down)               | 
H, h  (hammer-on)                | 
P, p  (pull-off)                 | 
B, b (bend) ¼ ½ or 1 step        |
V~  (vibrato)                    | 
+  (harmonic)                    |
PM,  (Palm mute)                 |
x (pick scr*pe)                  |
_________________________________|


Tune Gtr. down ½ step
Lively Blues Shuffle (=120)

 Intro
|---------------------------------------------------|
|---------------------------------------------------|
|---------------------------------------------------|
|---------------------------------------------------|
|---------------------------------------------------|
|------------------------------------------------0--|	

 (A7)
 sl.
|-/9---9---9---9---9---9---9---9---9---9---9---9----|
|-/8---8---8---8---8---8---8---8---8---8---8---8----|
|-/9---9---9---9---9---9---9---9---9---9---9---9----|
|---------------------------------------------------|
|---------------------------------------------------|
|---------------------------------------------------|	

 (A’7)   
|--8---8---8---8---8---8---8---8---8---8---8---8----|
|--7---7---7---7---7---7---7---7---7---7---7---7----|
|--8---8---8---8---8---8---8---8---8---8---8---8----|
|---------------------------------------------------|
|---------------------------------------------------|
|---------------------------------------------------|	


 (A7)
 sl.
|-/9---9---9---9---9---9---9---9---9---9---9---9----|
|-/8---8---8---8---8---8---8---8---8---8---8---8----|
|-/9---9---9---9---9---9---9---9---9---9---9---9----|
|---------------------------------------------------|
|---------------------------------------------------|
|---------------------------------------------------|	

   sl.                   sl.    H                    
|-9\-------8------7----(7)\-------------------------|
|-8\-------8------7----(7)\-------------------------|
|-9\-------8------7----(7)\-------------------------|
|----------7------6----(6)\----0^2-----------0------|
|------------------------------0-------------2------|
|------0--------------------------------------------|	

                      H                          H
||--------------------------------------------------|
||*-------------------------------------------------|
||---------------------------------------------0^---|
||--2----------4------0^2--------2---4---------0^---|
||*-0----------0------0----------0---0---------0^---|
||---------0----------------------------------------|


  H                      H                        H    
|---------------------------------------------------|
|---------------------------------------------------|
|-2---------------------------------------------0^--|
|-2-------2----4--------0^2-------2-----4-------0^--|
|-0-------0----0--------0---------0-----0-------0^--|
|---------------------------------------------------|	

                        H                         H
|---------------------------------------------------|
|---------------------------------------------------|
|-2----------------------------------------------0^-|
|-2--------2----4-------0^2--------2---4---------0^-|
|(0)-------0----0-------0----------0---0---------0^-|
|---------------------------------------------------|	

                         H                        H   
|---------------------------------------------------|
|---------------------------------------------------|
|-2----------------------------------------------0^-|
|-2--------2----4-------0^2--------2---4---------0^-|
|(0)-------0----0-------0----------0---0---------0^-|
|---------------------------------------------------|	


                         H                        H   
|---------------------------------------------------|
|---------------------------------------------------|
|-2----------------------------------------------0^-|
|-2--------2----4-------0^2--------2---4---------0^-|
|(0)-------0----0-------0----------0---0---------0^-|
|---------------------------------------------------|	


                         H                        H   
|---------------------------------------------------|
|---------------------------------------------------|
|-2----------------------------------------------0^-|
|-2--------2----4-------0^2--------2---4---------0^-|
|(0)-------0----0-------0----------0---0---------0^-|
|---------------------------------------------------|	


                         H                        H   
|---------------------------------------------------|
|---------------------------------------------------|
|-2----------------------------------------------0^-|
|-2--------2----4-------0^2--------2---4---------0^-|
|(0)-------0----0-------0----------0---0---------0^-|
|---------------------------------------------------|	


                         H                        H   
|---------------------------------------------------|
|---------------------------------------------------|
|-2----------------------------------------------2--|
|-2--------2----4-------0^2--------2-------------0--|
|(0)-------0----0-------0----------0---3------------|
|---------------------------------------------------|	

(D)

|---------------------------------------------------|
|---------------------------------------------------|
|----2------------4------------2------2---4---------|
|----0--------0---0--------0---0------0---0-----4---|
|---------------------------------------------------|
|---------------------------------------------------|	

                            H                    H         
|---------------------------------------------------|
|---------------------------------------------------|
|----2-------2---4---------0^2---------2---4----0^--|
|----0-------0---0---------0-----------0---0----0^--|
|---------------------------------------------------|
|---------------------------------------------------|	


                         H                        H   
|---------------------------------------------------|
|---------------------------------------------------|
|-2----------------------------------------------0^-|
|-2--------2----4-------0^2--------2---4---------0^-|
|(0)-------0----0-------0----------0---0---------0^-|
|---------------------------------------------------|

                         H   
|---------------------------------------------------|
|---------------------------------------------------|
|-2-------------------------------------------------|
|-2--------2----4-------0^2--------2---4------------|
|(0)-------0----0-------0----------0---0---------5--|
|------------------------------------------------5--|


|---------------------------------------------------|
|---------------------------------------------------|
|-----------------------------------------------0---|
|-----------------------------------------------0---|
|------2---------------------2-----2-----4----------|
|------0----0---3-------4---------------------------|	


                        H   
|---------------------------------------------------|
|-----------------------------------------------2---|
|-2---------------------------------------------2---|
|-2--------2----4-------0^2--------2---4--------2---|
|(0)-------0----0-------0----------0---0------------|
|---------------------------------------------------|

                                    H P           
|---------------------------------------------------|
|--(2)----------------------------------------------|
|--(2)-----2----------------------------------------|
|--(2)-----2-----------0---1---2---0^1^0------------|
|--------------3---4-------------------------3------|
|---------------------------------------------------|	

          sl.
|---------/8---------7----(7)----------------------||
|---------/8---------7----(7)---------------------*||
|-2-------/8---------7----(7)----2--------2--------||
|---------/7---------6----(6)----2--------2--------||
|-------------------------------------------------*||
|-----0------------------------------3-------------||
            
Hard to play? Try these video lessons and learn fast. | Correct




comments powered by Disqus
↑ Back to top | Tablatures and chords are parodies/interpretations of the original songs. You may use it for private study, scholarship, research or language learning purposes only