» » »

Stephen Speaks, Passenger Seat Tabs (ver.1)

Artists:  A B C D E F G H I J K L M N O P Q R S T U V W X Y Z # 

Passenger Seat Tabs (ver.1)

Stephen Speaks Tabs
 Rating:
4/5 (23 votes)
Passenger Seat lessons Tabs too difficult? Try these video lessons and learn fast
                     PASSENGER SEAT by STEPHEN SPEAKS


Comments, suggestions, corrections & violent reactions...

STANDARD TUNING WITH CAPO ON 5th FRET
(All chords relative to capo)

CHORDS:   D:      xx0232    Daug/G: xx0030    Bm7: x24232    G: 320033
       *[ A7sus:  x02030    A9:     x02000    A7:  x02020 ]             *shuffled chords
          D~9/F#: 2x0430    D/F#:   2x0230

*This tab is not 100% sure, i think 97% because it's 2:00AM in the morning when i made 
tab,but still its sound like it..
*I'm not so sure about the Daug/G, D~9/F# & D/F# chords (or however they're called), but 
they sure hell sound like those on the record.

INTRO:
     D                Daug/G     Bm7                       G
e||------------2-2----0-0-0-0-x--2---2-2---2--2-2-x-2-x-0--3--3-3-x-3--3-3-x-3-x-0--||
B||*-----3-----3-3----3-3-3-3-x--3---3-3-x-3--3-3-x-3-x-3--3--3-3-x-3--3-3-x-3-x-3-*||
G||----2---0H2----(2)-0-0-0-0-x--2---2-2-x-2--2-2-x-2-x-0--0--0-0-x-0--0-0-x-0-x-0--||
D||--0-------------0--0-0-0-0-x--2H4-4-4-x-4--4-4-x-4-x-x--0--0-0-x-0--0-0-x-0-x-0--||
A||*-----------------------------2---2-2-x-2--2-2-x-2-x----2--2-2---2--2-2---2---x-*||
E||--------------------------------------------------------3--3-3---3--3-3---3------||

1.----------------------------|                             2.----------------------|
*[ A7sus         A9    A7 ]                                    A7sus        A9 A7
e------0-0-0-0---------0-0-0--                              e------0-0-0-0--0--0-0--|
B------3-3-3-3-3-0-0-0-2-2-2-- :return to INTRO             B------3-3-3-3--0--2-2--| :to
G--0-0-0-0-0-0-0-0-0-0-0-0-0--  then do #2,                 G--0-0-0-0-0-0--0--0-0--|  VERSE
D--2-2-2-2-2-2-2-2-2-2-2-2-2--  this time, strum D chord    D--2-2-2-2-2-2--2--2----|
A--0-0-0-0-0-0---0-0-0-0-0-0--                              A--0-0-0-0-0-0--0--0----|
E-----------------------------      ^ = upstroke            E-----------------------|
   v v v ^ ^ ^ v v ^ v ^ v ^        v = downstroke             v v v ^ ^ ^  ^  ^ ^
                *chord shuffle

VERSE 1:
D                          Daug/G
  I look at her and have to smile
Bm7                        G
  As we go drivin' for a while,
                          A7sus             A9   A7
  Her hair blowing in the open window of my car, and
D                       Daug/G
  As we go, the traffic lights,
Bm7                            G
  I watch them glimmer in her eyes
                         A7sus  A9  A7
  In the darkness of the evening.

CHORUS 1:
      D                   Daug/G
  And I've got all that I need
Bm7                G              A7sus  A9
  Right here in my passenger seat.
A7    D                       Daug/G  Bm7
  Oh, and I can't keep my eyes on the____ road
                     G              A7sus  A9  A7
  Knowing that she's inches from me.

VERSE 2:
D                             Daug/G
  We stop to get something to drink,
Bm7                            G
  My mind clouds and I can't think,
                           A7sus  A9  A7
  Scared to death to say I love her.
D                              Daug/G
  Then the moon peeks from the clouds,
Bm7                             G
  I hear my heart, it beats so loud,
                    A7sus  A9  A7
  I try to tell her simply.

CHORUS 2:
       D                   Daug/G
  That I've got all that I need
Bm7                G              A7sus  A9
  Right here in my passenger seat.
A7        D                       Daug/G  Bm7
  Oh, and I can't keep my eyes on the____ road
                     G              A7sus  A9
  Knowing that she's inches from me.
A7        D                   Daug/G
  Oh, and I've got all that I need
Bm7                G              A7sus  A9
  Right here in my passenger seat.
A7        D                       Daug/G  Bm7
  Oh, and I can't keep my eyes on the____ road
                     G              A7sus
  Knowing that she's inches from me.

BRIDGE:
          G     D7~B/F#  D/F#
  Oh, and I know
  G           A7sus
  This love grows.

GUITAR SOLO: (Use same chord pattern twice)
                                               sl          sl           sl
e----------------------------------------------------------------------------| b = bend to ( )
B-------------------8h10p8-10b(12)--8h10p8-----------------------------------| h = hammer-on
G---------------7h9------------------------9--7\----4-5-4-5/7----7-5-4-4/5---| p = pull-off
D--7b(9)-5--7h9--------------------------------------------------------------| / \ = slide
A----------------------------------------------------------------------------|
E----------------------------------------------------------------------------|
                          sl                  sl        sl         sl
e------------------------------------------5-5/8--7-8--8/10--8h10p8\7-------|
B----------------------------------------8----------------------------------|
G--5h7-5-4-4h5----4-4h5--7/9-10b(11)-7-9------------------------------------|
D---------------5-----------------------------------------------------------|
A---------------------------------------------------------------------------|
E---------------------------------------------------------------------------|
        sl              sl                              *gradual bend to (4)
e--7h8p7\5--5---------------------------------------------------------------|
B-------------8-7-8-7--7/8-8------------------------------------------------|
G----------------------------5h7p5-5---5h7p5-4-----2b(4)*-------------------|
D---------------------------------------------------------------------------|
A---------------------------------------------------------------------------|
E---------------------------------------------------------------------------|

CHORUS 3:
          D (pause)
  Oh, and I've got all that I need
  Right here in my passenger seat.
  Oh, and I can't keep my eyes on the road
  Knowing that she's inches from me.

A7sus A9  A7   D                         Daug/G
     Oooh, and I've got all that I______ need
               (I look at her and have to smile)
Bm7                          G                            A7sus             A9
            Right here in my passenger seat.
  (As we go drivin' for a_ while, her hair blowing in the open window of my car, and)
A7    D                       Daug/G  Bm7
  And I can't keep my eyes on the____ road
 (And as we go, I see the____ lights,_ I watch them)
                     G                           A7sus  A9  A7
  Knowing that she's inches from me.
  (Glimmer in her__ eyes, in the darkness of the evening.)
      D                         Daug/G
  And I've got all that I______ need
      (I look at her and have to smile)
Bm7                          G                            A7sus             A9
            Right here in my passenger seat.
  (As we go drivin' for a_ while, her hair blowing in the open window of my car, and)
A7        D                       Daug/G  Bm7
  Oh, and I can't keep my eyes on the____ road
  (As we go, I see the___________ lights,_ I watch them)
                     G                           A7sus  A9  A7
  Knowing that she's inches from me.
  (Glimmer in her__ eyes, in the darkness of the evening.)
          D (pause)
  Oh, and I've got all that I need
          (I look at her and have to smile)

            Right here in my passenger seat...
  (As we go driving for a while...)
            
Submit corrections

comments powered by Disqus
↑ Back to top | Stephen Speaks Tabs for Passenger Seat. Lyrics for acoustic guitar and electric guitar. Tablatures and chords are parodies/interpretations of the original songs. You may use it for private study, scholarship, research or language learning purposes only