» » »

Stephen Speaks, Out Of My League Tabs (ver.2)

Artists:  A B C D E F G H I J K L M N O P Q R S T U V W X Y Z # 

Out Of My League Tabs (ver.2)

Stephen Speaks Tabs
Rating:
3/5 (2 votes)
Out Of My League lessons Tabs too difficult? Try these video lessons and learn fast
                
Tutorial: 

ito lang :D

Capo - 5th fret  


Intro: 

    C9        D                G/D
|------3--|-0-2-0----|-------------------------|
|---------|-------3--|----------0--------------|
|----0--0-|----------|------2-----2-0----------|
|---------|-0--------|----0---0----------------|
|--3------|----------|-------------------------|
|---------|----------|-3-----------------------|

    C9          D              E/D
|------3---|-0-2-0---|---0---2---3-2-0---------|
|----------|-------3-|-------------------------|
|----0--0--|---------|-----0--0----------------|
|----------|-0-------|---2---------------------|
|--3-------|---------|-------------------------|
|----------|---------|-------------------------|


    C9        D                G/D                C9
|------3--|-0-2-0----|-----------------|----------------------|
|---------|-------3--|----------0------|-------0--------------|
|----0--0-|----------|------2-----2-0--|---------2--0-0-------|
|---------|-0--------|----0---0--------|-----0----------------|
|--3------|----------|-----------------|--2--------------2/4--|
|---------|----------|-3---------------|---------------------2|






Verse 1: 

    C9        D                G/D
|------3--|-0-2-0----|-------------------------|
|---------|-------3--|----------0--------------|
|----0--0-|----------|------2-----2-0----------|
|---------|-0--------|----0---0----------------|
|--3------|----------|-------------------------|
|---------|----------|-3-----------------------|

    C9          D              E/D
|------3---|-0-2-0---|---0---2---3-2-0---------|
|----------|-------3-|-------------------------|
|----0--0--|---------|-----0--0----------------|
|----------|-0-------|---2---------------------|
|--3-------|---------|-------------------------|
|----------|---------|-------------------------|



       Am           Bm7            C9             D
|--------------|-------------|-------------|-----------|
|-------1------|------3------|------3------|-----3--3--|
|-----------0--|----------0--|----------0--|----0-0----|
|-----2---2----|----0---0----|----0---0----|--0--------|
|--0-----------|--2----------|--3----------|-----------|
|--------------|-------------|-------------|-----------|

      C9           D                E/D
|-------------|------------|--0---2---3--2--0-|
|------3------|-----3--3---|------------------|
|----------0--|----0-0-----|----0---0---------|
|----0---0----|--0---------|--2---------------|
|--3----------|------------|------------------|
|-------------|------------|------------------|



    C9        D                G/D
|------3--|-0-2-0----|-------------------------|
|---------|-------3--|----------0--------------|
|----0--0-|----------|------2-----2-0----------|
|---------|-0--------|----0---0----------------|
|--3------|----------|-------------------------|
|---------|----------|-3-----------------------|

    C9          D              E/D
|------3---|-0-2-0---|---0---2---3-2-0---------|
|----------|-------3-|-------------------------|
|----0--0--|---------|-----0--0----------------|
|----------|-0-------|---2---------------------|
|--3-------|---------|-------------------------|
|----------|---------|-------------------------|



       Am           Bm7            C9             D
|--------------|-------------|-------------|-----------|
|-------1------|------3------|------3------|-----3--3--|
|-----------0--|----------0--|----------0--|----0-0----|
|-----2---2----|----0---0----|----0---0----|--0--------|
|--0-----------|--2----------|--3----------|-----------|
|--------------|-------------|-------------|-----------|

      C9           D                E/D
|-------------|------------|--0---2---3--2--0-|
|------3------|-----3--3---|------------------|
|----------0--|----0-0-----|----0---0---------|
|----0---0----|--0---------|--2---------------|
|--3----------|------------|------------------|
|-------------|------------|------------------|




Chorus:

Strumming part

   G      C       G+
|---X--|--0--|--X-X-X--|
|---X--|--1--|--X-1-X--|
|---0--|--0--|--0-0-0--|  2X
|---0--|--2--|--0-0-0--|
|---2--|--3--|--2-2-2--|
|---3--|--X--|--3-3-3--|

       Am           Bm7            C9             D
|--------------|-------------|-------------|-----------|
|-------1------|------3------|------3------|-----3--3--|
|-----------0--|----------0--|----------0--|----0-0----|
|-----2---2----|----0---0----|----0---0----|--0--------|
|--0-----------|--2----------|--3----------|-----------|
|--------------|-------------|-------------|-----------|

      C9           D                E/D
|-------------|------------|--0---2---3--2--0-|
|------3------|-----3--3---|------------------|
|----------0--|----0-0-----|----0---0---------|
|----0---0----|--0---------|--2---------------|
|--3----------|------------|------------------|
|-------------|------------|------------------|


|---------------------------------------------------------------------|

    C9        D                G/D                C9
|------3--|-0-2-0----|-----------------|----------------------|
|---------|-------3--|----------0------|-------0--------------|
|----0--0-|----------|------2-----2-0--|---------2--0-0-------|
|---------|-0--------|----0---0--------|-----0----------------|
|--3------|----------|-----------------|--2--------------2/4--|
|---------|----------|-3---------------|---------------------2|

|---------------------------------------------------------------------|

Verse 2:


    C9        D                G/D
|------3--|-0-2-0----|-------------------------|
|---------|-------3--|----------0--------------|
|----0--0-|----------|------2-----2-0----------|
|---------|-0--------|----0---0----------------|
|--3------|----------|-------------------------|
|---------|----------|-3-----------------------|

    C9          D              E/D
|------3---|-0-2-0---|---0---2---3-2-0---------|
|----------|-------3-|-------------------------|
|----0--0--|---------|-----0--0----------------|
|----------|-0-------|---2---------------------|
|--3-------|---------|-------------------------|
|----------|---------|-------------------------|



       Am           Bm7            C9             D
|--------------|-------------|-------------|-----------|
|-------1------|------3------|------3------|-----3--3--|
|-----------0--|----------0--|----------0--|----0-0----|
|-----2---2----|----0---0----|----0---0----|--0--------|
|--0-----------|--2----------|--3----------|-----------|
|--------------|-------------|-------------|-----------|

      C9           D                E/D
|-------------|------------|--0---2---3--2--0-|
|------3------|-----3--3---|------------------|
|----------0--|----0-0-----|----0---0---------|
|----0---0----|--0---------|--2---------------|
|--3----------|------------|------------------|
|-------------|------------|------------------|


2nd chorus:

Strumming part

   G      C       G+
|---X--|--0--|--X-X-X--|
|---X--|--1--|--X-1-X--|
|---0--|--0--|--0-0-0--|  2X
|---0--|--2--|--0-0-0--|
|---2--|--3--|--2-2-2--|
|---3--|--X--|--3-3-3--|

       Am           Bm7            C9             D
|--------------|-------------|-------------|-----------|
|-------1------|------3------|------3------|-----3--3--|
|-----------0--|----------0--|----------0--|----0-0----|
|-----2---2----|----0---0----|----0---0----|--0--------|
|--0-----------|--2----------|--3----------|-----------|
|--------------|-------------|-------------|-----------|

      C9           D                E/D
|-------------|------------|--0---2---3--2--0-|
|------3------|-----3--3---|------------------|
|----------0--|----0-0-----|----0---0---------|
|----0---0----|--0---------|--2---------------|
|--3----------|------------|------------------|
|-------------|------------|------------------|


       Am           Bm7            C9             D
|--------------|-------------|-------------|-----------|
|-------1------|------3------|------3------|-----3--3--|
|-----------0--|----------0--|----------0--|----0-0----|
|-----2---2----|----0---0----|----0---0----|--0--------|
|--0-----------|--2----------|--3----------|-----------|
|--------------|-------------|-------------|-----------|

      C9           D                E/D
|-------------|------------|--0---2---3--2--0-|
|------3------|-----3--3---|------------------|
|----------0--|----0-0-----|----0---0---------|
|----0---0----|--0---------|--2---------------|
|--3----------|------------|------------------|
|-------------|------------|------------------|

Repeat Intro:

Repeat Verse 1:

different chord Chorus:

            G                      F#
|-----------|-----------|----------|----------|
|-----3-3---|-----3-3---|-----3-3--|-----3-3--|
|----0-0----|----0-0----|----0-0---|----0-0---|
|-----------|-----------|----------|----------|
|-----------|-----------|----------|----------|
|--3--------|--3--------|--2-------|--2-------|

            E/G                    C9
|-----------|-----------|----------|----------|
|-----3-3---|-----3-3---|-----3-3--|-----3-3--|
|----0-0----|----0-0----|----0-0---|----0-0---|
|-----------|-----------|----------|----------|
|-----------|-----------|--2-------|--2-------|
|--0--------|--0--------|----------|----------|

       Am           Bm7            C9             D
|--------------|-------------|-------------|-----------|   
|-------1------|------3------|------3------|-----3--3--|
|-----------0--|----------0--|----------0--|----0-0----|
|-----2---2----|----0---0----|----0---0----|--0--------|
|--0-----------|--2----------|--3----------|-----------|
|--------------|-------------|-------------|-----------|
                                                           
      C9           D                E/D
|-------------|------------|--0---2---3--2--0-|
|------3------|-----3--3---|------------------|
|----------0--|----0-0-----|----0---0---------|
|----0---0----|--0---------|--2---------------|
|--3----------|------------|------------------|
|-------------|------------|------------------|

       Am           Bm7            C9             D
|--------------|-------------|-------------|-----------|
|-------1------|------3------|------3------|-----3--3--|
|-----------0--|----------0--|----------0--|----0-0----|
|-----2---2----|----0---0----|----0---0----|--0--------|
|--0-----------|--2----------|--3----------|-----------|
|--------------|-------------|-------------|-----------|

      C9           D                E/D
|-------------|------------|--0---2---3--2--0-|
|------3------|-----3--3---|------------------|
|----------0--|----0-0-----|----0---0---------|
|----0---0----|--0---------|--2---------------|
|--3----------|------------|------------------|
|-------------|------------|------------------|





Repeat Intro:


maraming salamat 
            

comments powered by Disqus
↑ Back to top | Stephen Speaks Tabs for Out Of My League. Lyrics for acoustic guitar and electric guitar. Tablatures and chords are parodies/interpretations of the original songs. You may use it for private study, scholarship, research or language learning purposes only