» » »

Stealers Wheel, Stuck In The Middle With You Tabs (ver.2)

Artists:  A B C D E F G H I J K L M N O P Q R S T U V W X Y Z # 

Stuck In The Middle With You Tabs (ver.2)

Stealers Wheel Tabs
 Rating:
4/5 (6 votes)
Stuck In The Middle With You lessons Tabs too difficult? Try these video lessons and learn fast
                Not 100% sure this correct but it sounds mighty like it.


----------------------------------------------------------------------------
                  Stuck in the Middle with You - Stealers Wheel
----------------------------------------------------------------------------

Tuning:
Intro
D|----0-0--0-0-0-0-0-0-0---------------------------------------------------|
B|----7-7--5-3-1-1-1-0-1---------------------------------------------------|
G|----7-7--5-4-2-2-2-0-2---------------------------------------------------|
D|--x-0-0--0-0-0-0-0-0-0---------------------------------------------------|
A|--0----------------------------------------------------------------------|
D|--0----------------------------------------------------------------------|
Verse
D|----0-0--0-0-0-0-0-0-0-----x-x-x-x-----0-0--0-0-0-0-0-0-0----------------|
B|----7-7--5-3-1-1-1-0-1-----3-3-3-3-----7-7--5-3-1-1-1-0-1----------------|
G|----7-7--5-4-2-2-2-0-2-----0-0-0-0-----7-7--5-4-2-2-2-0-2----------------|
D|--x-0-0--0-0-0-0-0-0-0-----0-0-0-0---x-0-0--0-0-0-0-0-0-0----------------|
A|--0------------------------x-x-x-x---0-----------------------------------|
D|--0------------------------5-5-5-5---0-----------------------------------|
Chorus
D|--x-x-x---0-0-0-3-3-3----------------------------------------------------|
B|--2-2-2---1-1-1-3-3-3----------------------------------------------------|
G|--2-2-2---0-0-0-0-0-0----------------------------------------------------|
D|--2-2-2---2-2-2-0-0-0----------------------------------------------------|
A|--0-0-0---3-3-3-x-x-x----------------------------------------------------|
D|--x-x-x---------5-5-5----------------------------------------------------|

"Clowns to the left of me, jokers on the right"
            
Submit corrections

comments powered by Disqus
↑ Back to top | Stealers Wheel Tabs for Stuck In The Middle With You. Lyrics for acoustic guitar and electric guitar. Tablatures and chords are parodies/interpretations of the original songs. You may use it for private study, scholarship, research or language learning purposes only