» » »

Stealers Wheel, Stuck In The Middle With You Tabs (ver.1)

Artists:  A B C D E F G H I J K L M N O P Q R S T U V W X Y Z # 

Stuck In The Middle With You Tabs (ver.1)

Stealers Wheel Tabs
 Rating:
3.5/5 (8 votes)
Stuck In The Middle With You lessons Tabs too difficult? Try these video lessons and learn fast
                                 Stuck in the Middle with You
                       (Stealer's Wheel)


This is for the slide lead.
It is just a base because there's a lot of ad lib going on in this song, but since there 
no other tab, other than the intro to this song, here's something to work with.


There is basically nothing except rhythm up to the first bridge, so that's where this 
begins.  (Full lyrics are at the bottom)


Well you started...
    e|---------------|---------------|---------------|---------------|
    B|---9/10--10\7--|---9/10--10\7--|--11/12--12\8--|--11/12--12\8--|
    G|--10/11--11\7--|--10/11--11\7--|--11/12--12\7--|--11/12--12\7--|
    D|---------------|---------------|---------------|---------------|
    A|---------------|---------------|---------------|---------------|
    E|---------------|---------------|---------------|---------------|
Now your friends...
    e|---------------|---------------|
    B|---9/10--10\7--|---9/10--10\7--|
    G|--10/11--11\7--|--10/11--11\7--|
    D|---------------|---------------|
    A|---------------|---------------|
    E|---------------|---------------|

and say,    please...     please...
    e|--------------|--------------|
    B| -----10/11---|-----7/8------|
    G|------9/10----|-----5/6------|
    D|--------------|-----6/7------|
    A|--------------|--------------|
    E|--------------|--------------|


Try   to  make...
    e|------------------|------------------------|
    B|----9/10--10\7----|--9/10--10---------11---|
    G|---10/11--11\7----|-10/11--10/11\10/11-----|
    D|------------------|------------------------|
    A|------------------|------------------------|
    E|------------------|------------------------|

I   can  see...
    e|------------------|------------------------|
    B|----9/10--10\7----|--9/10--10---------11---|
    G|---10/11--11\7----|-10/11--10/11\10/11-----|
    D|------------------|------------------------|
    A|------------------|------------------------|
    E|------------------|------------------------|

cool  to  go...
    e|--------------|------10--------10----|
    B|---11/12\8----|-11/12--12\11/12--12--|
    G|---11/12\7----|-11/12--------------12|
    D|--------------|----------------------|
    A|--------------|----------------------|
    E|--------------|----------------------|

I  don't  think...
    e|------------------|------------------------|-------|
    B|----9/10--10\7----|--9/10--10---------11---|--10\--|
    G|---10/11--11\7----|-10/11--10/11\10/11-----|--11\--|
    D|------------------|------------------------|-------|
    A|------------------|------------------------|-------|
    E|------------------|------------------------|-------|


     Clowns to...
    e|--11/12-12-12\7--|----------------10------|
    B|--13/14----14\8--|-------10--11/12--12----|
    G|-----------------|--10/11--11---------12--|
    D|-----------------|------------------------|
    A|-----------------|------------------------|
    E|-----------------|------------------------|

       Stuck in...
    e|------------------|------------------------|
    B|----9/10--10\7----|--9/10--10---------11---|
    G|---10/11--11\7----|-10/11--10/11\10/11-----|
    D|------------------|------------------------|
    A|------------------|------------------------|
    E|------------------|------------------------|

-------------------------------------------------------------------

| /  slide up
| \  slide down
| h  hammer-on
| p  pull-off
| ~  vibrato
| +  harmonic
| x  Mute note

------------------------------------------------------------------

Stuck in the Middle with You
(Stealer's Wheel)

Well I don't know why I came here tonight,
I got the feeling that something ain't right,
I'm so scared in case I fall off my chair,
And I'm wondering how I'll get down the stairs,
Clowns to the left of me,
Jokers to the right, here I am,
Stuck in the middle with you.

Yes I'm stuck in the middle with you,
And I'm wondering what it is I should do,
It's so hard to keep this smile from my face,
Losing control, yeah, I'm all over the place,
Clowns to the left of me, Jokers to the right,
Here I am, stuck in the middle with you.

Well you started out with nothing,
And you're proud that you're a self made man,
And your friends, they all come crawlin,
Slap you on the back and say,
Please.... Please.....

Trying to make some sense of it all,
But I can see that it makes no sense at all,
Is it cool to go to sleep on the floor,
'Cause I don't think that I can take anymore
Clowns to the left of me, Jokers to the right,
Here I am, stuck in the middle with you.

Well you started out with nothing,
And you're proud that you're a self made man,
And your friends, they all come crawlin,
Slap you on the back and say,
Please.... Please.....

Well I don't know why I came here tonight,
I got the feeling that something ain't right,
I'm so scared in case I fall off my chair,
And I'm wondering how I'll get down the stairs,
Clowns to the left of me,
Jokers to the right, here I am,
Stuck in the middle with you,
Yes I'm...stuck in the middle with you,
Stuck in the middle with you.
Here I am...Stuck in the middle with you
            
Submit corrections

comments powered by Disqus
↑ Back to top | Stealers Wheel Tabs for Stuck In The Middle With You. Lyrics for acoustic guitar and electric guitar. Tablatures and chords are parodies/interpretations of the original songs. You may use it for private study, scholarship, research or language learning purposes only