» » »

Starting Line, Left Coast Envy Tabs (ver.1)

Artists:  A B C D E F G H I J K L M N O P Q R S T U V W X Y Z # 

Left Coast Envy Tabs (ver.1)

Starting Line Tabs
 Rating:
4/5 (4 votes)
Left Coast Envy lessons Tabs too difficult? Try these video lessons and learn fast
1
                Left Coast Envy- The Starting Line
---------------------------------------------------------
Intro: (Guitar 1) Repeat  until drums start kicking in
e:----------------------------------------------------------------
B:---4h5p4h5p4h5p4-let ring---------4h5-----4h5-----4h5/7/5-4h5p--
G:------------------------------4-4-----4-4-----4-4---------------
D:----------------------------------------------------------------
A:----------------------------------------------------------------
E:----------------------------------------------------------------

e:----------------------------------------------------------------
B:-------4h5-----4h5/7/5-4h5p4---------4h5—7/5p4h5p4--------------
G:----------------------------------------------------------------
D:--2-2------2-2------------------6-6-----------------------------
A:----------------------------------------------------------------
E:----------------------------------------------------------------

e:----------------------------------------------------------------
B:-------4h5-----4h5/7/5p4h5--------------------------------------
G:----------------------------------------------------------------
D:---4-4-----4-4--------------------------------------------------
A:----------------------------------------------------------------
E:----------------------------------------------------------------
Intro: (Guitar 2) Plays this progression throughout song
e:----------------------------------------------------------------
B:----------------------------------------------------------------
G:---4~-----------------------------------------------------------
D:---4~----2~----6~---4~------------------------------------------
A:---2~----2~----6~---4~------------------------------------------
E:---------0~----4~---2~------------------------------------------

e:----------------------------------------------------------------
B:--------4h5p4-----4h5p4------4h5p4/7/5p4h5p4--------------------
G:---4-4--------4-4-----------------------------------------------
D:---4-4--------4-4--------2-2--2-2-------------------------------
A:---2-2--------2-2--------2-2—-2-2-(g2)--------------------------
E:-------------------------0-0--0-0-------------------------------

e:----------------------------------------------------------------
B:--------4h5p4-------4h5p4------4h5p4/7/5p4h5p4------------------
G:----------------------------------------------------------------
D:----6-6--------6-6---------4-4----4-4---------------------------
A:----6-6--------6-6---------4-4----4-4---------------------------
E:----4-4--------4-4---------2-2----2-2---------------------------

e:----------------------------------------------------------------
B:-----4h5p4---4h5p4------4h5p4/7/5p4h5p4----4h5p4---4h5p4/7/5p4h5
G:--4-4-------4--------6-6-----6-6--------------------------------
D:--4-4-------4--------6-6-----6-6----------6-6--6-6---4-4---4--4-
A:--2-2-------2--------4-4-----4-4----------6-6--6-6---4-4---4--4-
E:------------------------------------------4-4--4-4---2-2---2--2-

“can I.. set a sunrise” guitar 2 only (guitar 2 palm mutes this)
e:----------------------------------------------------------------
B:----------------------------------------------------------------
G:--4-4-4-4-4-----------------------------------------------------
D:--4-4-4-4-4--2-2-2-2-2---6-6-6-6-6-------4-4-4-4-4--------------
A:--2-2-2-2-2--2-2-2-2-2---6-6-6-6-6-------4-4-4-4-4--------------
E:-------------0-0-0-0-0---4-4-4-4-4-------2-2-2-2-2--------------

Outro is the beginning of the guitar 1 intro
            
Submit corrections

comments powered by Disqus
↑ Back to top | Starting Line Tabs for Left Coast Envy. Lyrics for acoustic guitar and electric guitar. 1 Tablatures and chords are parodies/interpretations of the original songs. You may use it for private study, scholarship, research or language learning purposes only