» » »

Starting Line, Left Coast Envy Bass tabs (ver.1)

Artists:  A B C D E F G H I J K L M N O P Q R S T U V W X Y Z # 

Left Coast Envy Bass tabs (ver.1)

Starting Line Tabs
 Rating:
4/5 (4 votes)
Left Coast Envy lessons Tabs too difficult? Try these video lessons and learn fast
1
                
INTRO
G---11--9--11--9--11--11--9--11-
D-99--99-99--99-99--99--99-99---
A-------------------------------
E-------------------------------

VERSE 1 (LET NOTES RING)
G------------
D------------
A-2----------
E---0--4--0--

CHORUS (CAN I SELL...)
G-----------------------------------------------
D-----------------------------------------------
A-222---222-------------------------------------
E------------000---000--444---444---222---222---

G----------------------------------------------
D----------------------------------------------
A-222---222--444---444-------------------------
E-----------------------444---444---000---000--

VERSE 2 (I'VE ASKED A HUNDRED TIMES...)
G-------------------------------------------------------------------
D-------------------------------------------------------------------
A-22222-2-2-22222---------------------------------------------------
E-----------------00000-0-0-00000--44444-4-4-44444-00000-0-0-00000--

END OF VERSE 2 (AND I'VE BEEN LOOKING..)
G-----------------------------------------------
D-----------------------------------------------
A-----------------------------------------------
E-22222222-44444444-000000000--2222222-444444-0-

REPEAT CHORUS

BRIDGE (I'M TAKING PICTURES...)
G---------------------------------------------------
D---------------------------------------------------
A-222222222-4444444444------------------------------
E----------------------4444444444-0000000-22222222--

INTERLUDE
G--------------------------------------------------------------------
D--------------------------------------------------------------------
A-2222222222222222---------------------------------------------------
E------------------0000000000000000-4444444444444444-000000000000000-
            
Submit corrections

comments powered by Disqus
↑ Back to top | Starting Line Bass for Left Coast Envy. Lyrics for acoustic guitar and electric guitar. 1 Tablatures and chords are parodies/interpretations of the original songs. You may use it for private study, scholarship, research or language learning purposes only