» » »

Starting Line, Leaving Tabs (ver.1)

Artists:  A B C D E F G H I J K L M N O P Q R S T U V W X Y Z # 

Leaving Tabs (ver.1)

Starting Line Tabs
 Rating:
4/5 (4 votes)
Leaving lessons Tabs too difficult? Try these video lessons and learn fast
1
                "Leaving" - The Starting Line

Intro
e|---------------------------------------------------------------------------|
B|---------------------------------------------------------------------------|
G|--4------------------------------------------------------------------------|
D|--2---------2------------4------------6------------------------------------|
A|--2---------2------------2------------6------------------------------------|
E|------------0------------2------------4------------------------------------|

e|---------------------------------------------------------------------------|
B|---------------------------------------------------------------------------|
G|--4------------------------------------------------------------------------|
D|--2---------2------------4-------------6----------2------------------------|
A|--2---------2------------2-------------6----------2------------------------|
E|------------0------------2-------------4----------0------------------------|

PreChorus
e|---------------------------------------------------------------------------|
B|---------------------------------------------------------------------------|
G|---------------------------------------------------------------------------|
D|------6------------2-------------4-----------------------------------------|
A|------6------------2-------------4-----------------------------------------|
E|------4------------0-------------2-----------------------------------------|

Chorus:
e|---------------------------------7-6--4-2-4h-2-----------------------------|
B|----------------------------4------------------4h--------------------------|
G|------4---------6-----------4----------------------4-4-3-4h-4-3-4-6-4-3-4h-|
D|------2---------4-----------2----------------------------------------------|
A|------2---------4----------------------------------------------------------|
E|---------------------------------------------------------------------------|

e|--------------------7-6-7h--9-7-6-7----------------------------------------|
B|---------------------------------------------------------------------------|
G|---------------------------------------------------------------------------|
D|---------------------------------------------------------------------------|
A|---------------------------------------------------------------------------|
E|---------------------------------------------------------------------------|

  End
e|--------------------7-6-7h-9-7-9h-----14-----------------------------------|
B|---------------------------------------------------------------------------|
G|---------------------------------------------------------------------------|
D|---------------------------------------------------------------------------|
A|---------------------------------------------------------------------------|
E|---------------------------------------------------------------------------|
            
Submit corrections

comments powered by Disqus
↑ Back to top | Starting Line Tabs for Leaving. Lyrics for acoustic guitar and electric guitar. 1 Tablatures and chords are parodies/interpretations of the original songs. You may use it for private study, scholarship, research or language learning purposes only