» » »

Leaving Tabs (ver.2)

Artists:  A B C D E F G H I J K L M N O P Q R S T U V W X Y Z # 

Leaving Tabs (ver.2)

Starting Line
Rating:
0/5 (0 votes)

Hard to play? Try these video lessons and learn fast.
                LEAVING - The Starting Line 


e|---------------------------------------------------------------------------| 
B|---------------------------------------------------------------------------| 
G|-4-4-4---------------------------------------------------------------------| 
D|-4-4-4---2-2-2---4-4-4---6-6-6-----------2-2-------------------------------| 
A|-2-2-2---2-2-2---4-4-4---6-6-6-----------2-2-------------------------------| 
E|---------0-0-0---2-2-2---4-4-4-----------0-0-------------------------------| 
play 4x then end with E minor 

verse 
e|---------------------------------------------------------------------------| 
B|---------------------------------------------------------------------------| 
G|---------------------------------------------------------------------------| 
D|----------------2--------------------2--------------------------------2----| 
A|-----------2-2--2--------------2-2---2---------------------------2-2--2----| 
E|-2-2--4-4-------0----2-2--4-4--------0----4-4-4--2-2-2--2-2--4-4------0----| 
p.m. . . . . . . . . . . . . . . . . . . . . 

e|---------------------------------------------------------------------------| 
B|---------------------------------------------------------------------------| 
G|---------------------------------------------------------------------------| 
D|-----------------2---------------------------------------------------------| 
A|------------2-2--2---------------------------------------------------------| 
E|--2-2--4-4-------0---------------------------------------------------------| 
p.m.. . . . . slide / and repeat intro 

verse 2 guitar 2 
e|-7-7-7-7-7-7--6-9--7-7-7-7-7-7--6/7--9/7--7-7-7-7-7-7---7-7-7-7-7-7-7-7-7-7| 
B|---------------------------------------------------------------------------| 
G|-4-4-4-4-4-4--3-6--4-4-4-4-4-4--3/4--6/4--4-4-4-4-4-4---4-4-4-4-4-4-4-4-4-4| 
D|---------------------------------------------------------------------------| 
A|---------------------------------------------------------------------------| 
E|---------------------------------------------------------------------------| 

pre chorus guitar one 
e|---------------------------------------------------------------------------| 
B|---------------------------------------------------------------------------| 
G|---------------------------------------------------------------------------| 
D|----------------------------------2----------------------------------------| 
A|-6-6-6-6-6-6--2-2-2--4-4-4--------2----------------------------------------| 
E|-4-4-4-4-4-4--0-0-0--2-2-2--------0----------------------------------------| 
3x then on the fourth measure end with E minor 

pre chorus guitar 2 
e|---------------------------------------------------------------------------| 
B|--------7-----------------------7-----7-5-4-2-4--------7-------------------| 
G|--3-4-3---4-3---4-3---6-3--3-4-3---4-3----------4--3-4-3--4-3---4-3---6-3--| 
D|--------------4-----4----------------------------------------4-----4-------| 
A|---------------------------------------------------------------------------| 
E|---------------------------------------------------------------------------| 

*let ring 
e|---------------------------------------------------------------------------| 
B|-------7-----7---7-7-------------------------------------------------------| 
G|-3-4-3---4-3---------------------------------------------------------------| 
D|-----------------4-4-------------------------------------------------------| 
A|---------------------------------------------------------------------------| 
E|---------------------------------------------------------------------------| 

chorus guitar 1 here is just the chords 
e|---------------------------------------------------------------------------| 
B|---------------------------------------------------------------------------| 
G|-4--6--4-------------------------------------------------------------------| 
D|-4--6--4--6--4--2----------------------------------------------------------| 
A|-2--4--2--6--4--2----------------------------------------------------------| 
E|----------4--2--0----------------------------------------------------------| 

here is that slow part 
e|---------------------------------------------------------------------------| 
B|---------------------------------------------------------------------------| 
G|---------------------------------------------------------------------------| 
D|-----4------------4------6-------------------4----------4--2-2-------------| 
A|---2----2-------4------6-------------------2---2------4----2-2-------------| 
E|-0--------4---2------4-------------------0-------4--2------0-0-------------| 
3x fourth time 

well thats about all you need to know. figure the other leads and you will 
have the whole song. 
            
Hard to play? Try these video lessons and learn fast. | Correct




comments powered by Disqus
↑ Back to top | Tablatures and chords are parodies/interpretations of the original songs. You may use it for private study, scholarship, research or language learning purposes only