>
 >
Zombie Christ 1

Zombie Christ 1 Guitar Tabs

Star Fucking Hipsters - Zombie Christ 1 chords, tabs, tablatures, lyrics

Guitar lessons | Add/correct | Request | Top 50 tabs Artists:  A B C D E F G H I J K L M N O P Q R S T U V W X Y Z 0-9

Zombie Christ 1 Guitar Tabs – Star Fucking Hipsters

CD, Sheet music, Poster

Do you like Zombie Christ 1? Share with your friends now
Bass TabsChordsTabsTabs v2Tabs v3Ukulele
Band - Star Fucking Hipsters
Song - Zombie Christ
Album - Until We're Dead


Tuning: Eb (Eb Ab Db Gb Bb Eb)

One Of My Favorite Songs Off A Fantastic Album Untill We're Dead!

I Have Tabbed Rhythm (Right Speaker) & Lead Guitar (Left Speaker)
Rhythm At Top
Lead At Bottom

.=Palm Mute
Dist.=Distortion
---------------------------------------------------------------------------
                         Rhythm Guitar

Intro
|--------------------------------------------------|
|--------------------------------------------------|
|-6-6--------------------9-9-----------------------|
|-6-6--------7-7---------9-9--------9-9------------|
|-4-4--------7-7---------7-7--------9-9------------|
|------------5-5--------------------7-7------------|

Intro 2
|------------------------------|
|------------------------------|
|--------666666----------------|
|-222222-666666-777777-999999--|
|-222222-444444-777777-999999--|
|-000000--------555555-777777--|

Verse
(Clean, Ska Rhythm)
|-4-----5-----------7---|
|-5-----5-----9-----7---|
|-6-----6-----9-----8---|
|-6-----7-----9-----9---| x4
|-4-----7-----7-----9---|
|-------5-----------7---|

Verse 2
(Clean, Ska Rhythm)
|-4-----5-----------7---|
|-5-----5-----9-----7---|
|-6-----6-----9-----8---| x3
|-6-----7-----9-----9---|
|-4-----7-----7-----9---|
|-------5-----------7---|
                     Dist.
|-4-----5----------------------|
|-5-----5----9-----------------|
|-6-----6----9-----------------|
|-6-----7----9-------99999999--|
|-4-----7----7-------99999999--|
|-------5------------77777777--|

Pre Chorus
|-------------------|
|-------------------|
|-6-------9---------|
|-6--6-7--9-9-7-----| x4
|-4--6-7--7-9-7-----|
|----4-5----7-5-----|

|-------------------|
|-------------------|
|-6-----------------|
|-6-6-7-99999999----|
|-4-6-7-99999999----|
|---4-5-77777777----|

Chorus
|----------------------------------------------------------------------|
|----------------------------------------------------------------------|
|-9999999999999999-6666666666666666------------------------------------|
|-xxxxxxxxxxxxxxxx-xxxxxxxxxxxxxxxx-7777777777777777-9999999999999999--|
|-7777777777777777-4444444444444444-xxxxxxxxxxxxxxxx-xxxxxxxxxxxxxxxx--|
|-----------------------------------5555555555555555-7777777777777777--|

Pre Bridge
|------------------------------------------------------|
|------------------------------------------------------|
|-999999999999-666666666666----------------------------|
|-xxxxxxxxxxxx-xxxxxxxxxxxx-77777777777-999999999999---|
|-777777777777-444444444444-xxxxxxxxxxx-xxxxxxxxxxxx---|
|---------------------------55555555555-777777777777---|

Bridge/Solo
|-----------------------------------------|
|-----------------------------------------|
|-----------------------------------------|
|-2-2-2-22--2-2-2-22--2-2-2-22--2-2-2-22--|
|-2-2-2-22--2-2-2-22--2-2-2-22--2-2-2-22--|
|-0-0-0-00--0-0-0-00--0-0-0-00--0-0-0-00--|
  .   .     .   .     .   .     .   .
|----------------------------------------|
|----------------------------------------|
|-6-6-6-66--6-6-6-66--6-6-6-66--6-6-6-66-|
|-6-6-6-66--6-6-6-66--6-6-6-66--6-6-6-66-|
|-4-4-4-44--4-4-4-44--4-4-4-44--4-4-4-44-|
|----------------------------------------|
  .   .     .   .     .   .     .   .
|----------------------------------------|
|----------------------------------------|
|----------------------------------------|
|-7-7-7-77--7-7-7-77--7-7-7-77--7-7-7-77-|
|-7-7-7-77--7-7-7-77--7-7-7-77--7-7-7-77-|
|-5-5-5-55--5-5-5-55--5-5-5-55--5-5-5-55-|
  .   .     .   .     .   .     .   .
|----------------------------------------|
|----------------------------------------|
|----------------------------------------|
|-9-9-9-99--9-9-9-99--9-9-9-99--9-9-9-99-|
|-9-9-9-99--9-9-9-99--9-9-9-99--9-9-9-99-|
|-7-7-7-77--7-7-7-77--7-7-7-77--7-7-7-77-|
  .   .     .   .     .   .     .   .

Outro
|-------------------|
|-------------------|
|-9-------------9---|
|-9-------------9---|
|-7-------------7---|
|-------------------|

---------------------------------------------------------------------------
                           Lead Guitar

Intro
|--------------------------------------------------|
|--------------------------------------------------|
|--------------------------------------------------|
|-----3-4-6------------------6-7-9-----------------|
|-4-4-------------7-5-4--7-7-------------9-7-6-----|
|------------5-5--------------------7-7------------|

Intro 2
|--------------------------------------------------|
|--------------------------------------------------|
|-999999-111111111111-131313131313-141414141414----|
|-xxxxxx-x-x-x-x-x-x--x-x-x-x-x-x--x-x-x-x-x-x-----|
|-777777-9-9-9-9-9-9--111111111111-121212121212----|
|--------------------------------------------------|

Verse & Verse 2
(Clean, Ska Rhythm)
|-4-----5-----------7---|
|-5-----5-----9-----7---|
|-6-----6-----9-----8---| x3
|-6-----7-----9-----9---|
|-4-----7-----7-----9---|
|-------5-----------7---|
                     Dist.
|-4-----5----------------------|
|-5-----5----9-----------------|
|-6-----6----9-----------------|
|-6-----7----9-------99999999--|
|-4-----7----7-------99999999--|
|-------5------------77777777--|

Chorus
|--------x7-------------------|--------------------|
|-----------------------------|--------------------|
|-99999999-11111111-13131313--|-999999-1111-99-88--|
|-xxxxxxxx-x-x-x-x--x-x-x-x---|-xxxxxx-x-x--xx-xx--|
|-77777777-9-9-9-9--11111111--|-777777-9-9--77-66--|
|-----------------------------|--------------------|

Pre Chorus
|-------------------|
|-------------------|
|-6-------9---------|
|-6--6-7--9-9-7-----| x3
|-4--6-7--7-9-7-----|
|----4-5----7-5-----|

|-------------------|
|-------------------|
|-6-----------------|
|-6-6-7-99999999----|
|-4-6-7-99999999----|
|---4-5-77777777----|

Pre Bridge/Solo
|--------x3------------------|------------------------|
|----------------------------|------------------------|
|-99-9-99-9--111111--131313--|-99-9-99-9-111111-99-8--|
|-xx-x-xx-x--x-x-x---x-x-x---|-xx-x-xx-x-x-x-x--xx-x--|
|-77-7-77-7--9-9-9---111111--|-77-7-77-7-9-9-9--77-6--|
|----------------------------|------------------------|

Bridge/Solo
|------------------------------------------------------|
|------------------------------------------------------|
|-131313131313-141414141414-161616161616-181818181818--|
|-x-x-x-x-x-x--x-x-x-x-x-x--x-x-x-x-x-x--x-x-x-x-x-x---|
|-111111111111-121212121212-141414141414-161616161616--|
|------------------------------------------------------|

|---------------------------------------------------------|
|---------------------------------------------------------|
|-202020-212121-202020-212121-202020-212121-202020-212121-|
|-x-x-x--x-x-x--x-x-x--x-x-x--x-x-x--x-x-x--x-x-x--x-x-x--|
|-181818-191919-181818-191919-181818-191919-181818-191919-|
|---------------------------------------------------------|

|------------------------------------------------------|
|------------------------------------------------------|
|-202020202020-181818181818-161616161616-141414141414--|
|-x-x-x-x-x-x--x-x-x-x-x-x--x-x-x-x-x-x--x-x-x-x-x-x---|
|-181818181818-161616161616-141414141414-121212121212--|
|------------------------------------------------------|

|-----------------------------------------------------------|
|-----------------------------------------------------------|
|-131313131313-111111111111-131313131313-14141414-13131313--|
|-x-x-x-x-x-x--x-x-x-x-x-x--x-x-x-x-x-x--x-x-x-x--x-x-x-x---|
|-111111111111-9-9-9-9-9-9--111111111111-12121212-11111111--|
|-----------------------------------------------------------|

Outro Chorus
|-------x7-------------|-----------------------------|
|----------------------|-----------------------------|
|-999999-111111-131313-|-141414-161616-141414-131313-|
|-xxxxxx-x-x-x--x-x-x--|-xxxxxx-x-x-x--x-x-x--x-x-x--|
|-777777-9-9-9--111111-|-121212-141414-121212-111111-|
|----------------------|-----------------------------|

Outro
|-------------------|
|-------------------|
|-9-------------9---|
|-9-------------9---|
|-7-------------7---|
|-------------------|

----------------------------------------------------------------------------
Structure
Intro
Intro 2
Verse
Pre Chorus
Chorus
Verse 2
Pre Chorus
Chorus
Pre Bridge/Solo
Bridge/Solo
Outro Chorus (Rhythm Plays Chorus)
Outro


There Ya Have It, I'm Positive That This Is A Good Tab.

Rate & Comments Will Be Much Apprieciated! :)





Comments


Popular Star Fucking Hipsters tabs & chords
Empty Lives Chords
Death Is Never Out Of Fashion 1 Tabs
Death Or Fight Tabs
Look Who's Talking Now! Tabs
Severance Pay Tabs
Snitch To The Suture Intro Tabs
Two Cups Of Tea 1 Tabs
The Path Is Paved Ukulele
Two Cups Of Tea Ukulele
Zombie Christ Ukulele


Song lyrics



↑ Back to top | Tablatures and chords are parodies/interpretations of the original songs. You may use it for private study, scholarship, research or language learning purposes only
© 2014 AZChords.com Contact us | Privacy policy | DMCA | Add/correct tabs | Request tabs | Top 50 tabs