» » »

Star Fucking Hipsters, Zombie Christ Tabs (ver.2)

Artists:  A B C D E F G H I J K L M N O P Q R S T U V W X Y Z # 

Zombie Christ Tabs (ver.2)

Star Fucking Hipsters Tabs
Rating:
0/5 (0 votes)
Zombie Christ lessons Tabs too difficult? Try these video lessons and learn fast
                Rhythm for the most part, lazy tab. Listen to the song for strum patterns

Intro
e|---------------------------------------------------|
B|---------------------------------------------------|
G|-55----88------------------------------------------|
D|-55-66-88-88---------------------------------------|
A|-33-66-66-88---------------------------------------|
E|----44----66---------------------------------------|

Guitar 1
e|--------------------------------------------------|
B|--------------------------------------------------|
G|-8-10-12-13---------------------------------------|
D|-8-10-12-13---------------------------------------|
A|-6-8--10-11---------------------------------------|
E|--------------------------------------------------|

Guitar 2
e|--------------------------------------------------|
B|--------------------------------------------------|
G|-8------------------------------------------------|
D|-8-10-6-8-----------------------------------------|
A|-6-10-6-8-----------------------------------------|
E|---8--4-6-----------------------------------------|

Ska Verse
e|-3-4-6-6------------------------------------------|
B|-4-4-8-6------------------------------------------|
G|-5-5-8-7------------------------------------------|
D|--------------------------------------------------|
A|--------------------------------------------------|
E|--------------------------------------------------|

Bridge
e|--------------------------------------------------|
B|--------------------------------------------------|
G|-5--8---------------------------------------------|
D|-55-88--------------------------------------------|
A|-35-68--------------------------------------------|
E|--3--6--------------------------------------------|

Chorus
e|--------------------------------------------------|
B|--------------------------------------------------|
G|-8------------------------------------------------|
D|-6-10-6-8-----------------------------------------|
A|-6-10-6-8-----------------------------------------|
E|---8--4-6-----------------------------------------|

The rest is straight forward.
            
Submit corrections

comments powered by Disqus
↑ Back to top | Star Fucking Hipsters Tabs for Zombie Christ. Lyrics for acoustic guitar and electric guitar. Tablatures and chords are parodies/interpretations of the original songs. You may use it for private study, scholarship, research or language learning purposes only