>
 >
Immigrants And Hypocrites 1

Immigrants And Hypocrites 1 Guitar Tabs

Star Fucking Hipsters - Immigrants And Hypocrites 1 chords, tabs, tablatures, lyrics

Guitar lessons | Add/correct | Request | Top 50 tabs Artists:  A B C D E F G H I J K L M N O P Q R S T U V W X Y Z 0-9

Immigrants And Hypocrites 1 Guitar Tabs – Star Fucking Hipsters

CD, Sheet music, Poster

Do you like Immigrants And Hypocrites 1? Share with your friends now
TabsTabs v2
Band - Star Fucking Hipsters
Song - Immigrants & Hypocrites
Album - Until We're Dead


Tuning: Eb (Eb Ab Db Gb Bb Eb)

Brilliant Track By SFH From Their Amazing Debut Album!

I Have Tabbed Rhythm (Left Speaker) And Lead (Right Speaker) Guitars
Rhythm On Top
Lead At Bottom

-----------------------------------------------------------------------------
                           Rhythm Guitar

Intro/Verse
|----------------|-----------------|
|----------------|-----------------|
|---------5---7--|----7--9----5----|
|-5---2---5---7--|-5--7--9----5----|
|-5---2---3---5--|-5--5--7----3----|
|-3---0----------|-3---------------|

Verse Part 2
|---------------------------------------------|
|---------------------------------------------|
|-----------------------5555555555-7777777777-|
|-5555555555-2222222222-5555555555-7777777777-|
|-5555555555-2222222222-3333333333-5555555555-|
|-3333333333-0000000000-----------------------|

|-----------------------------------------------|
|-----------------------------------------------|
|-121212121212-7777777777-9999999999-5555555555-|
|-121212121212-7777777777-9999999999-5555555555-|
|-101010101010-5555555555-7777777777-3333333333-|
|-----------------------------------------------|

Chorus
|---------------------------------------------|
|---------------------------------------------|
|-----------------------5555555555-7777777777-|
|-5555555555-2222222222-5555555555-7777777777-|
|-5555555555-2222222222-3333333333-5555555555-|
|-3333333333-0000000000-----------------------|

|-----------------------------------------------|
|-----------------------------------------------|
|-121212121212-7777777777-9999999999-5555555555-|
|-x-x-x-x-x-x--xxxxxxxxxx-xxxxxxxxxx-xxxxxxxxxx-|
|-101010101010-5555555555-7777777777-3333333333-|
|-----------------------------------------------|

Bridge
Clean Tone
|-------------------------------------|
|-------------------------------------|
|----------77777777-99999999-55555555-|
|-55555555-77777777-99999999-55555555-|
|-55555555-55555555-77777777-33333333-|
|-33333333----------------------------|

Bridge Part 2
Clean Tone
|-------------------------------------------------------------------|
|-------------------------------------------------------------------|
|-12--12--12--12--12--12--12--12--12--12--12--12--12--12--12--12----|
|---12--12--12--12--12--12--12--12--12--12--12--12--12--12--12--12--|
|-------------------------------------------------------------------|
|-------------------------------------------------------------------|

Bridge Part 3
|---------------------------------------------|
|---------------------------------------------|
|-----------------------5555555555-7777777777-|
|-5555555555-2222222222-5555555555-7777777777-|
|-5555555555-2222222222-3333333333-5555555555-|
|-3333333333-0000000000-----------------------|

|-----------------------------------------------|
|-----------------------------------------------|
|-121212121212-7777777777-9999999999-5555555555-|
|-121212121212-7777777777-9999999999-5555555555-|
|-101010101010-5555555555-7777777777-3333333333-|
|-----------------------------------------------|

Bridge Part 4
|----------------------------------------------|
|----------------------------------------------|
|-1212121212121212-99999999-55555555-77777777--|
|-x-x-x-x-x-x-x-x--xxxxxxxx-xxxxxxxx-xxxxxxxx--|
|-1010101010101010-77777777-33333333-55555555--|
|----------------------------------------------|

|---------------------------------------------------|
|---------------------------------------------------|
|-1212121212121212-7777777777-9999999999-5555555555-|
|-x-x-x-x-x-x-x-x--xxxxxxxxxx-xxxxxxxxxx-xxxxxxxxxx-|
|-1010101010101010-5555555555-7777777777-3333333333-|
|---------------------------------------------------|

Outro
|-----------------|
|-----------------|
|-----------------|
|-5---------5-----|
|-5---------5-----|
|-3---------3-----|

----------------------------------------------------------------------------
                            Lead Guitar

Intro/Verse
|----------------|-----------------|
|----------------|-----------------|
|---------5---7--|----7--9----5----|
|-5---2---5---7--|-5--7--9----5----|
|-5---2---3---5--|-5--5--7----3----|
|-3---0----------|-3---------------|

Verse Part 2
|---------------------------------------------|
|---------------------------------------------|
|-----------------------5555555555-7777777777-|
|-5555555555-2222222222-5555555555-7777777777-|
|-5555555555-2222222222-3333333333-5555555555-|
|-3333333333-0000000000-----------------------|

|-----------------------------------------------|
|-----------------------------------------------|
|-121212121212-7777777777-9999999999-5555555555-|
|-121212121212-7777777777-9999999999-5555555555-|
|-101010101010-5555555555-7777777777-3333333333-|
|-----------------------------------------------|

Chorus
|----x3----------|----------------------|
|----------------|----------------------|
|-1212121212-14--|-1616-1717-1616-1414--|
|-x-x-x-x-x--x---|-x-x--x-x--x-x--x-x---|
|-1010101010-12--|-1414-1515-1414-1212--|
|----------------|----------------------|

Bridge
Clean Tone
|-------------------------------------|
|-------------------------------------|
|----------77777777-99999999-55555555-|
|-55555555-77777777-99999999-55555555-|
|-55555555-55555555-77777777-33333333-|
|-33333333----------------------------|

Bridge Part 2
Clean Tone
|-------------------------------------------------------------------|
|-------------------------------------------------------------------|
|-12--12--12--12--12--12--12--12--12--12--12--12--12--12--12--12----|
|---12--12--12--12--12--12--12--12--12--12--12--12--12--12--12--12--|
|-------------------------------------------------------------------|
|-------------------------------------------------------------------|

Bridge Part 3
|--------------------------------------------|
|--------------------------------------------|
|-121212121212121212121212121212121212121212-|
|-121212121212121212121212121212121212121212-|
|-101010101010101010101010101010101010101010-|
|--------------------------------------------|

Bridge Part 4
|----x3----------|----------------------|
|----------------|----------------------|
|-1212121212-14--|-1616-1717-1616-1717--|
|-x-x-x-x-x--x---|-x-x--x-x--x-x--x-x---|
|-1010101010-12--|-1414-1515-1414-1515--|
|----------------|----------------------|

|---x3-------------|----------------------|
|------------------|----------------------|
|-191919191919-21--|-1919-1717-1616-1414--|
|-x-x-x-x-x-x--x---|-x-x--x-x--x-x--x-x---|
|-171717171717-19--|-1717-1515-1414-1212--|
|------------------|----------------------|

|----x3----------|----------------------|
|----------------|----------------------|
|-1212121212-14--|-1616-1717-1616-1717--|
|-x-x-x-x-x--x---|-x-x--x-x--x-x--x-x---|
|-1010101010-12--|-1414-1515-1414-1515--|
|----------------|----------------------|

|---x2-------------|---------------------------------|
|------------------|---------------------------------|
|-191919191919-21--|-1919-21-1919-21-1919-21-1919-21-|
|-x-x-x-x-x-x--x---|-x-x--x--x-x--x--x-x--x--x-x--x--|
|-171717171717-19--|-1717-19-1717-19-1717-19-1717-19-|
|------------------|---------------------------------|

Outro
|-----------------|
|-----------------|
|-----------------|
|-5---------5-----|
|-5---------5-----|
|-3---------3-----|

Structure
Verse
Verse Part 2
Chorus 
Verse
Verse Part 2
Chorus 
Verse
Chorus 
Bridge
Bridge 2
Bridge 3 x 2
Bridge 4
Verse
Chorus 
Outro


And Thats Another Star Fucking Great Tab For Y'all!





Comments


Popular Star Fucking Hipsters tabs & chords
Only Sleep Bass Tabs
Empty Lives Chords
3000 Miles Away 1 Tabs
Death Is Never Out Of Fashion Tabs
Death Is Never Out Of Fashion 1 Tabs
Empty Lives Tabs
S.F.H. Theme Tabs
The Civilization Show Tabs
Two Cups Of Tea 1 Tabs
Two Cups Of Tea Ukulele


Song lyrics



↑ Back to top | Tablatures and chords are parodies/interpretations of the original songs. You may use it for private study, scholarship, research or language learning purposes only
© 2014 AZChords.com Contact us | Privacy policy | DMCA | Add/correct tabs | Request tabs | Top 50 tabs