» » »

Immigrants And Hypocrites Tabs (ver.1)

Artists:  A B C D E F G H I J K L M N O P Q R S T U V W X Y Z # 

Immigrants And Hypocrites Tabs (ver.1)

Star Fucking Hipsters
Rating:
0/5 (0 votes)

Hard to play? Try these video lessons and learn fast.
                if its horrible, I do apologize. Feel free to send me comments and things to fix it or wateverr.

Intro: we're all immigrants and hypocrites
Eb------------------------------------------------------------------------|
Bb------------------------------------------------------------------------|
Gb------------------------------------------------------------------------|
Db-12~--9~-------7~---12--7--9--------------------------------------------|
Ab-10~--7~--10~--5~---10--5--7-----10~------------------------------------|
Eb----------8~---------------------8~-------------------------------------|

Stza:1,2,3,5!
Verse/chorus 1: its all put off til another day
Eb-------------------------------------------------------------------------|
Bb-------------------------------------------------------------------------|
Gb-------------------------------------------------------------------------|
Db-12121212--77--99999-------------------77777777--------------------------|
Ab-10101010--55--77777--1010---10101010--55555555--------------------------|
Eb----------------------88-----88888888------------------------------------|

Eb--------------------------------------------------------------------------|
Bb--------------------------------------------------------------------------|
Gb--------------------------------------------------------------------------|
Db-12121212--77777--99999---------------------------------------------------|
Ab-10101010--55555--77777---10101010----------------------------------------|
Eb--------------------------888888------------------------------------------|

(Little chorus part 2^-^)
Eb-------------------------------------------------------------------------|
Bb-------------------------------------------------------------------------|
Gb-12121212--14-------12121212--14-16-17-16-14-----------------------------|
Db-x-x-x-x---x---(x2)-x-x-x-x---x--x--x--x--x---------(X2)-----------------|
Ab-10101010--12-------10101010--12-14-15-14-12-----------------------------|
Eb-------------------------------------------------------------------------|


Eb-------------------------------------------------------------------------|
Bb-------------------------------------------------------------------------|
Gb-------------------------------------------------------------------------|
Db-12~--9~-------7~---12--7--9---------------------------------------------|
Ab-10~--7~--10~--5~---10--5--7-----10~-------------------------------------|
Eb----------8~---------------------8~--------------------------------------|

(Chorus)
(Little chorus Part 2^-^)
(again repeats intro tabs as verse)
(Little chorus Part2...AGAIN!)

PALM MUTED:(X2)
  ..............................
Eb---------------------------------------------------------------------------|
Bb---------------------------------------------------------------------------|
Gb---------------------------------------------------------------------------|
Db-12121212--7777--9999------------------------------------------------------|
Ab-10101010--5555--7777--101010----------------------------------------------|
Eb-----------------------8888------------------------------------------------|
(other guitar:)
Eb---------------------------------------------------------------------------|
Bb---------------------------------------------------------------------------|
Gb---12---12---12---12-------------------------------------------------------|
Db-------------------------(Repetatively)------------------------------------|
Ab-10--10---10---10----------------------------------------------------------|
Eb---------------------------------------------------------------------------|

Soloish thingy (except not really)
Eb--------------------------------------------------------------------------|
Bb--------------------------------------------------------------------------|
Gb-121212-14-121212-14-121212-14--16171617-191919-21-191919-21-191919-------|
Db--------------------------------------------------------------------------|
Ab--------------------------------------------------------------------------|
Eb--------------------------------------------------------------------------|

Eb--------------------------------------------------------------------------|
Bb--------------------------------------------------------------------------|
Gb-21-19-17-16-14---------(repeat solo)-------------------------------------|
Db--------------------------------------------------------------------------|
Ab--------------------------------------------------------------------------|
Eb--------------------------------------------------------------------------|
(end soloish thingy)

Somewhere beyond the thunderdome...
Eb--------------------------------------------------------------------------|
Bb--------------------------------------------------------------------------|
Gb--------------------------------------------------------------------------|
Db-12~--9~-------7~---12--7--9----------------------------------------------|
Ab-10~--7~--10~--5~---10--5--7-----10~--------------------------------------|
Eb----------8~---------------------8~---------------------------------------|

(repeats Little Part)

We're all immigrants and hypocrites
delusionals and sycophants
we pretend to play a special part
and born in pain we fall apart
it's the same game with the same players
where dying dreams are strung on prayers
(it's) a never ending battle just to be

it's all put off 'til another day
we all get old and waste away
the lust for dollars make no sense
we squat the world or pay the rents
and when it's all been said and done
our joyless lives devoid of fun
I know it's all been said before
our nation's rotten to the core

f**k all flags and f**k all face
you're the garbage of the human race
change the color, change the name
the greedy f**ks are all the same
and everywhere that you can go
there's always someone in control
fat faced, dollar signs for eyes
on starving nations they rely

We're all immigrants and hypocrites
delusionals and sycophants
(we) pretend to play a special part
and born in pain we fall apart
it's the same game with the same players
where dying dreams are strung on prayers
(it's) a never ending battle just to be

the arbitrary borders stand
a line of blood through stolen lands
that little flag upon your sleeve
shows off you're stupid and naive
or maybe you believe the lies
through beady ignoramus eyes
it's no surprise you're outta luck
your mama raised a stupid f**k
oh yeah, yeah, yeah, yeah, yeah
we'll all sleep when we're dead
yeah, yeah, yeah, yeah
We'll all sleep/let's break it down

and somewhere beyond the thunder-dome
someday we just might find a home
autonomistic paradise
worth all the world without a price
and we can all be happy there
eat Soylent Green, breathe soylent air
and never rest our weary heads
we can all sleep when we're dead
yeah, yeah, yeah yeah
we can all sleep when we're dead
yeah, yeah, yeah yeah
we can all sleep when we're dead
            
Hard to play? Try these video lessons and learn fast. | Correct




comments powered by Disqus
↑ Back to top | Tablatures and chords are parodies/interpretations of the original songs. You may use it for private study, scholarship, research or language learning purposes only