» » »

Staind, Can't Believe Bass tabs (ver.2)

Artists:  A B C D E F G H I J K L M N O P Q R S T U V W X Y Z # 

Can't Believe Bass tabs (ver.2)

Staind Tabs
Rating:
0/5 (0 votes)
Can't Believe lessons Tabs too difficult? Try these video lessons and learn fast
                Staind - Can't believe

bass tab


5-stringed bass
G D A E B

   INTRO/CORO 1
G-|---------------------------|
D-|---------------------------|
A-|---------------------------|
E-|-0----0x00-00-3----33-33-3-|
B-|---------------------------|
                                                                              
 
   BREAK
G-|----------------------*------|
D-|----------------------*------|
A-|-7--------5/9--------3*/7----|
E-|------5\0--------8\0--*------|
B-|----------------------*------|
                                                                              

   VARIACION DE BREAK
G-|-------------------|
D-|------9---------11-|
A-|-7----------5/9----|
E-|--------5\0--------|
B-|-------------------|
                                                                              

   CORO 2
G-|---------------|---|---------|
D-|---------------|---|---------|
A-|---------------|---|---------|
E-|---------------|---|---------|
B-|-0-0000-3-3333-|---|-2-------|
                    +     
                                                     
Mando calurosos saludos tropicales a La Pamela B. que es guitarrista de la banda
que estoy ps, tiene su guitarra fire flayer que parece con fueguito y un pedal bipedal
que cuando lo pisa hace corte y se este ps. asi llevo mi ampli de 4000000000000 Newtons
para que suene juerte ooye.

doky2007
            
Submit corrections

comments powered by Disqus
↑ Back to top | Staind Bass for Can't Believe. Lyrics for acoustic guitar and electric guitar. Tablatures and chords are parodies/interpretations of the original songs. You may use it for private study, scholarship, research or language learning purposes only