» » »

Spinnerette, Ghetto Love Bass tabs (ver.2)

Artists:  A B C D E F G H I J K L M N O P Q R S T U V W X Y Z # 

Ghetto Love Bass tabs (ver.2)

Spinnerette Tabs
 Rating:
4.2/5 (5 votes)
Ghetto Love lessons Tabs too difficult? Try these video lessons and learn fast
                G --------------------------------------------|
D ----------5-5-5-5---------------------------|
A -------------------------------5-5-3-5------|
E -3-3-3-3------------3-3-3-3-----------------|

G --------------------------------------------|
D ----------5-5-5-5-------------5-------------|
A --------------------------------5-3-5-------|
E -3-3-3-3------------3-3-3-3-----------------|

Just repeat this for the whole song.

Dunno if it's right but it's my first TAB and i thought i would give it a go!
            
Submit corrections

comments powered by Disqus
↑ Back to top | Spinnerette Bass for Ghetto Love. Lyrics for acoustic guitar and electric guitar. Tablatures and chords are parodies/interpretations of the original songs. You may use it for private study, scholarship, research or language learning purposes only