» » »

Ghetto Love Bass tabs (ver.1)

Artists:  A B C D E F G H I J K L M N O P Q R S T U V W X Y Z # 

Ghetto Love Bass tabs (ver.1)

Spinnerette
Rating:
3/5 (2 votes)

Hard to play? Try these video lessons and learn fast.
                -------------------------------------------------------------------------------
-------------------------------------------------------------------------------


Tuning: E A D G


G|----------------------------------------------------------------------|
D|---------2-2-2-2----------2-2-------------5-5-5-5---------5-0---------|
A|--------------------------------------------------------------3-5-----|
E|-0-0-0-0---------0-0-0-0-----2-2--3-3-3-3---------3-3-3-3-------------|

G|----------------------------------------------------------------------|
D|---------2-2-2-2----------2-0-------------5-5-5-5---------5-0---------|
A|------------------------------3-5-----------------------------3-5-----|
E|-0-0-0-0---------0-0-0-0----------3-3-3-3---------3-3-3-3-------------|



Repeat through the whole song.....



| /  slide up
| \  slide down
| h  hammer-on
| p  pull-off
| ~  hold note
| +  harmonic
| x  Mute note
===============================================================================
            
Hard to play? Try these video lessons and learn fast. | Correct




comments powered by Disqus
↑ Back to top | Tablatures and chords are parodies/interpretations of the original songs. You may use it for private study, scholarship, research or language learning purposes only