» » »

Specials, Rat Race Bass tabs (ver.1)

Artists:  A B C D E F G H I J K L M N O P Q R S T U V W X Y Z # 

Rat Race Bass tabs (ver.1)

Specials Tabs
Rating:
0/5 (0 votes)
Rat Race lessons Tabs too difficult? Try these video lessons and learn fast
                
Intro
G----------------|
D----------------|
A--4---0-0---2---|
E----------------|

Verse
G-----------|---------|---------|---------|
D-----------|---------|---------|---------|
A--4--------|---2-6-2-|---4-7-4-|-2-0-----|
E----0-4-0--|-4-------|-5-------|-----4-2-|

Chorus (goes something like this)
G----------------------|
D----------------------|
A-7------------4-5-7---|
E----7777-7---5--------|
            

comments powered by Disqus
↑ Back to top | Specials Bass for Rat Race. Lyrics for acoustic guitar and electric guitar. Tablatures and chords are parodies/interpretations of the original songs. You may use it for private study, scholarship, research or language learning purposes only