» » »

Specials, Monkey Man Bass tabs (ver.1)

Artists:  A B C D E F G H I J K L M N O P Q R S T U V W X Y Z # 

Monkey Man Bass tabs (ver.1)

Specials Tabs
Rating:
0/5 (0 votes)
Monkey Man lessons Tabs too difficult? Try these video lessons and learn fast
                
All the other tabs for this song are cr*p - play it proberly

Tuning: Normal

INTRO
G|----------------------------------------------------------------------------|
D|----------------------------------------------------------------------------|
A|----------------3-3-3-3-5-5-5-5---------------------------3-3-3-3-5-5--5----|
E|---3--3--3-3-3-------------------3---3--3-----3--3--3-3-3----------------3-3|
VERSE / CHORUS 
G|---------------------------------------------------------------------------|
D|----------2-0---------2-0-------------------------2-0----------------------|
A|------------------------------0-2-3-5-5-3-2-0------------------------------|
E|--0-3-----------0-3----------------------------3---------------------------|
OUTRO (SAME AS INTRO)
G|----------------------------------------------------------------------------|
D|----------------------------------------------------------------------------|
A|----------------3-3-3-3-5-5-5-5---------------------------3-3-3-3-5-5--5----|
E|---3--3--3-3-3-------------------3---3--3-----3--3--3-3-3----------------3-3|
            

comments powered by Disqus
↑ Back to top | Specials Bass for Monkey Man. Lyrics for acoustic guitar and electric guitar. Tablatures and chords are parodies/interpretations of the original songs. You may use it for private study, scholarship, research or language learning purposes only