» » »

Rat Race Tabs (ver.1)

Artists:  A B C D E F G H I J K L M N O P Q R S T U V W X Y Z # 

Rat Race Tabs (ver.1)

Specials
Rating:
5/5 (2 votes)

Hard to play? Try these video lessons and learn fast.
                
  Guitar 1:

|-4-x-0-0-2-------------------------------------|
|-5-x-2-2-4-------------------------------------|
|-6-x-2-2-4-----------Drum-Roll-----------------|
|-6-x-2-2-4-------------------------------------|
|-4-x-0-0-2-------------------------------------|
|-----------------------------------------------|

  Guitar 2:

|-4-x-5-5-7-------------------------------------|
|-5-x-5-5-7-------------------------------------|
|-6-x-6-6-8-----------Drum-Roll-----------------|
|-6-x-7-7-9-------------------------------------|
|-4-x-7-7-9-------------------------------------|
|-----5-5-7-------------------------------------|

  Guitar 1:

|----4-------4-4---4-------4-4----5------5-5---7------7-7|
|-----5------5-5----4------4-4-----5-----5-5----7-----7-7|
|------6-----6-6-----4-----4-4------6----6-6-----8----8-8|   
|-6-6----6-6---------------------------------------------|
|--------------------------------------------------------|
|---------------4-4----4-4-----5-5----5-5----7-7---7-7---|

   Guitar 2:

|-x-4-x-4-x-4-x-4-x-4-x-4-x-4-x-4-x-5-x-5-x-5-x-5-x-7-x-7-x-7-x-7|
|-x-5-x-5-x-5-x-5-x-4-x-4-x-4-x-4-x-5-x-5-x-5-x-5-x-7-x-7-x-7-x-7|
|-x-6-x-6-x-6-x-6-x-4-x-4-x-4-x-4-x-6-x-6-x-6-x-6-x-8-x-8-x-8-x-8|
|-x-6-x-6-x-6-x-6-x-6-x-6-x-6-x-6-x-7-x-7-x-7-x-7-x-9-x-9-x-9-x-9|
|-x-4-x-4-x-4-x-4-x-6-x-6-x-6-x-6-x-7-x-7-x-7-x-7-x-9-x-9-x-9-x-9|
|-----------------x-4-x-4-x-4-x-4-x-5-x-5-x-5-x-7-x-7-x-7-x-7-x-7|

  Guitar 1:

|----4-------4-4---4-------4-4----5------5-5---7------7-7|
|-----5------5-5----4------4-4-----5-----5-5----7-----7-7|
|------6-----6-6-----4-----4-4------6----6-6-----8----8-8|   
|-6-6----6-6---------------------------------------------|
|--------------------------------------------------------|
|---------------4-4----4-4-----5-5----5-5----7-7---7-7---|

   Guitar 2:

|-x-4-x-4-x-4-x-4-x-4-x-4-x-4-x-4-x-5-x-5-x-5-x-5-x-7-x-7-x-7-x-7|
|-x-5-x-5-x-5-x-5-x-4-x-4-x-4-x-4-x-5-x-5-x-5-x-5-x-7-x-7-x-7-x-7|
|-x-6-x-6-x-6-x-6-x-4-x-4-x-4-x-4-x-6-x-6-x-6-x-6-x-8-x-8-x-8-x-8|
|-x-6-x-6-x-6-x-6-x-6-x-6-x-6-x-6-x-7-x-7-x-7-x-7-x-9-x-9-x-9-x-9|
|-x-4-x-4-x-4-x-4-x-6-x-6-x-6-x-6-x-7-x-7-x-7-x-7-x-9-x-9-x-9-x-9|
|-----------------x-4-x-4-x-4-x-4-x-5-x-5-x-5-x-7-x-7-x-7-x-7-x-7|


VERSE :

  Guitar 1:

|----4-------4-4---4-------4-4----5------5-5---7------7-7|
|-----5------5-5----4------4-4-----5-----5-5----7-----7-7|
|------6-----6-6-----4-----4-4------6----6-6-----8----8-8|   
|-6-6----6-6---------------------------------------------|
|--------------------------------------------------------|
|---------------4-4----4-4-----5-5----5-5----7-7---7-7---|

   Guitar 2:

|-x-4-x-4-x-4-x-4-x-4-x-4-x-4-x-4-x-5-x-5-x-5-x-5-x-7-x-7-x-7-x-7|
|-x-5-x-5-x-5-x-5-x-4-x-4-x-4-x-4-x-5-x-5-x-5-x-5-x-7-x-7-x-7-x-7|
|-x-6-x-6-x-6-x-6-x-4-x-4-x-4-x-4-x-6-x-6-x-6-x-6-x-8-x-8-x-8-x-8|
|-x-6-x-6-x-6-x-6-x-6-x-6-x-6-x-6-x-7-x-7-x-7-x-7-x-9-x-9-x-9-x-9|
|-x-4-x-4-x-4-x-4-x-6-x-6-x-6-x-6-x-7-x-7-x-7-x-7-x-9-x-9-x-9-x-9|
|-----------------x-4-x-4-x-4-x-4-x-5-x-5-x-5-x-7-x-7-x-7-x-7-x-7|

  Guitar 1:

|----4-------4-4---4-------4-4----5------5-5---7------7-7|
|-----5------5-5----4------4-4-----5-----5-5----7-----7-7|
|------6-----6-6-----4-----4-4------6----6-6-----8----8-8|   
|-6-6----6-6---------------------------------------------|
|--------------------------------------------------------|
|---------------4-4----4-4-----5-5----5-5----7-7---7-7---|

   Guitar 2:

|-x-4-x-4-x-4-x-4-x-4-x-4-x-4-x-4-x-5-x-5-x-5-x-5-x-7-x-7-x-7-x-7|
|-x-5-x-5-x-5-x-5-x-4-x-4-x-4-x-4-x-5-x-5-x-5-x-5-x-7-x-7-x-7-x-7|
|-x-6-x-6-x-6-x-6-x-4-x-4-x-4-x-4-x-6-x-6-x-6-x-6-x-8-x-8-x-8-x-8|
|-x-6-x-6-x-6-x-6-x-6-x-6-x-6-x-6-x-7-x-7-x-7-x-7-x-9-x-9-x-9-x-9|
|-x-4-x-4-x-4-x-4-x-6-x-6-x-6-x-6-x-7-x-7-x-7-x-7-x-9-x-9-x-9-x-9|
|-----------------x-4-x-4-x-4-x-4-x-5-x-5-x-5-x-7-x-7-x-7-x-7-x-7|

  Guitar 1:

|----4-------4-4---4-------4-4----5------5-5---7------7-7|
|-----5------5-5----4------4-4-----5-----5-5----7-----7-7|
|------6-----6-6-----4-----4-4------6----6-6-----8----8-8|   
|-6-6----6-6---------------------------------------------|
|--------------------------------------------------------|
|---------------4-4----4-4-----5-5----5-5----7-7---7-7---|

   Guitar 2:

|-x-4-x-4-x-4-x-4-x-4-x-4-x-4-x-4-x-5-x-5-x-5-x-5-x-7-x-7-x-7-x-7|
|-x-5-x-5-x-5-x-5-x-4-x-4-x-4-x-4-x-5-x-5-x-5-x-5-x-7-x-7-x-7-x-7|
|-x-6-x-6-x-6-x-6-x-4-x-4-x-4-x-4-x-6-x-6-x-6-x-6-x-8-x-8-x-8-x-8|
|-x-6-x-6-x-6-x-6-x-6-x-6-x-6-x-6-x-7-x-7-x-7-x-7-x-9-x-9-x-9-x-9|
|-x-4-x-4-x-4-x-4-x-6-x-6-x-6-x-6-x-7-x-7-x-7-x-7-x-9-x-9-x-9-x-9|
|-----------------x-4-x-4-x-4-x-4-x-5-x-5-x-5-x-7-x-7-x-7-x-7-x-7|

  Guitar 1:

|----4-------4-4---4-------4-4----5------5-5---7------7-7|
|-----5------5-5----4------4-4-----5-----5-5----7-----7-7|
|------6-----6-6-----4-----4-4------6----6-6-----8----8-8|   
|-6-6----6-6---------------------------------------------|
|--------------------------------------------------------|
|---------------4-4----4-4-----5-5----5-5----7-7---7-7---|

   Guitar 2:

|-x-4-x-4-x-4-x-4-x-4-x-4-x-4-x-4-x-5-x-5-x-5-x-5-x-7-x-7-x-7-x-7|
|-x-5-x-5-x-5-x-5-x-4-x-4-x-4-x-4-x-5-x-5-x-5-x-5-x-7-x-7-x-7-x-7|
|-x-6-x-6-x-6-x-6-x-4-x-4-x-4-x-4-x-6-x-6-x-6-x-6-x-8-x-8-x-8-x-8|
|-x-6-x-6-x-6-x-6-x-6-x-6-x-6-x-6-x-7-x-7-x-7-x-7-x-9-x-9-x-9-x-9|
|-x-4-x-4-x-4-x-4-x-6-x-6-x-6-x-6-x-7-x-7-x-7-x-7-x-9-x-9-x-9-x-9|
|-----------------x-4-x-4-x-4-x-4-x-5-x-5-x-5-x-7-x-7-x-7-x-7-x-7|

  Guitar 1:

|----4-------4-4---4-------4-4----5------5-5---7------7-7|
|-----5------5-5----4------4-4-----5-----5-5----7-----7-7|
|------6-----6-6-----4-----4-4------6----6-6-----8----8-8|   
|-6-6----6-6---------------------------------------------|
|--------------------------------------------------------|
|---------------4-4----4-4-----5-5----5-5----7-7---7-7---|

   Guitar 2:

|-x-4-x-4-x-4-x-4-x-4-x-4-x-4-x-4-x-5-x-5-x-5-x-5-x-7-x-7-x-7-x-7|
|-x-5-x-5-x-5-x-5-x-4-x-4-x-4-x-4-x-5-x-5-x-5-x-5-x-7-x-7-x-7-x-7|
|-x-6-x-6-x-6-x-6-x-4-x-4-x-4-x-4-x-6-x-6-x-6-x-6-x-8-x-8-x-8-x-8|
|-x-6-x-6-x-6-x-6-x-6-x-6-x-6-x-6-x-7-x-7-x-7-x-7-x-9-x-9-x-9-x-9|
|-x-4-x-4-x-4-x-4-x-6-x-6-x-6-x-6-x-7-x-7-x-7-x-7-x-9-x-9-x-9-x-9|
|-----------------x-4-x-4-x-4-x-4-x-5-x-5-x-5-x-7-x-7-x-7-x-7-x-7|

CHORUS:

Both Guitars:

|-x-12-x-12-x-7-x-7-x-5-x-5-x-5-x-5|
|-x-12-x-12-x-7-x-7-x-5-x-5-x-5-x-5|
|-x-13-x-13-x-8-x-8-x-6-x-6-x-6-x-6|
|-x-14-x-14-x-9-x-9-x-7-x-7-x-7-x-7|
|-x-14-x-14-x-9-x-9-x-7-x-7-x-7-x-7|
|-x-12-x-12-x-7-x-7-x-5-x-5-x-5-x-5|

|-x-12-x-12-x-7-x-7-x-5-x-5-x-5-x-5|
|-x-12-x-12-x-7-x-7-x-5-x-5-x-5-x-5|
|-x-13-x-13-x-8-x-8-x-6-x-6-x-6-x-6|
|-x-14-x-14-x-9-x-9-x-7-x-7-x-7-x-7|
|-x-14-x-14-x-9-x-9-x-7-x-7-x-7-x-7|
|-x-12-x-12-x-7-x-7-x-5-x-5-x-5-x-5|

|-x-12-x-12-x-7-x-7-x-5-x-5-x-5-x-5|
|-x-12-x-12-x-7-x-7-x-5-x-5-x-5-x-5|
|-x-13-x-13-x-8-x-8-x-6-x-6-x-6-x-6|
|-x-14-x-14-x-9-x-9-x-7-x-7-x-7-x-7|
|-x-14-x-14-x-9-x-9-x-7-x-7-x-7-x-7|
|-x-12-x-12-x-7-x-7-x-5-x-5-x-5-x-5|


Guitar 1:

|-4-x-0-0-2-------------------------------------|
|-5-x-2-2-4-------------------------------------|
|-6-x-2-2-4-----------Drum-Roll-----------------|
|-6-x-2-2-4-------------------------------------|
|-4-x-0-0-2-------------------------------------|
|-----------------------------------------------|

  Guitar 2:

|-4-x-5-5-7-------------------------------------|
|-5-x-5-5-7-------------------------------------|
|-6-x-6-6-8-----------Drum-Roll-----------------|
|-6-x-7-7-9-------------------------------------|
|-4-x-7-7-9-------------------------------------|
|-----5-5-7-------------------------------------|

  Guitar 1:

|-4-x-0-0-2-------------------------------------|
|-5-x-2-2-4-------------------------------------|
|-6-x-2-2-4-----------Drum-Roll-----------------|
|-6-x-2-2-4-------------------------------------|
|-4-x-0-0-2-------------------------------------|
|-----------------------------------------------|

  Guitar 2:

|-4-x-5-5-7-------------------------------------|
|-5-x-5-5-7-------------------------------------|
|-6-x-6-6-8-----------Drum-Roll-----------------|
|-6-x-7-7-9-------------------------------------|
|-4-x-7-7-9-------------------------------------|
|-----5-5-7-------------------------------------|

  Guitar 1:

|----4-------4-4---4-------4-4----5------5-5---7------7-7|
|-----5------5-5----4------4-4-----5-----5-5----7-----7-7|
|------6-----6-6-----4-----4-4------6----6-6-----8----8-8|   
|-6-6----6-6---------------------------------------------|
|--------------------------------------------------------|
|---------------4-4----4-4-----5-5----5-5----7-7---7-7---|

   Guitar 2:

|-x-4-x-4-x-4-x-4-x-4-x-4-x-4-x-4-x-5-x-5-x-5-x-5-x-7-x-7-x-7-x-7|
|-x-5-x-5-x-5-x-5-x-4-x-4-x-4-x-4-x-5-x-5-x-5-x-5-x-7-x-7-x-7-x-7|
|-x-6-x-6-x-6-x-6-x-4-x-4-x-4-x-4-x-6-x-6-x-6-x-6-x-8-x-8-x-8-x-8|
|-x-6-x-6-x-6-x-6-x-6-x-6-x-6-x-6-x-7-x-7-x-7-x-7-x-9-x-9-x-9-x-9|
|-x-4-x-4-x-4-x-4-x-6-x-6-x-6-x-6-x-7-x-7-x-7-x-7-x-9-x-9-x-9-x-9|
|-----------------x-4-x-4-x-4-x-4-x-5-x-5-x-5-x-7-x-7-x-7-x-7-x-7|

  Guitar 1:

|----4-------4-4---4-------4-4----5------5-5---7------7-7|
|-----5------5-5----4------4-4-----5-----5-5----7-----7-7|
|------6-----6-6-----4-----4-4------6----6-6-----8----8-8|   
|-6-6----6-6---------------------------------------------|
|--------------------------------------------------------|
|---------------4-4----4-4-----5-5----5-5----7-7---7-7---|

   Guitar 2:

|-x-4-x-4-x-4-x-4-x-4-x-4-x-4-x-4-x-5-x-5-x-5-x-5-x-7-x-7-x-7-x-7|
|-x-5-x-5-x-5-x-5-x-4-x-4-x-4-x-4-x-5-x-5-x-5-x-5-x-7-x-7-x-7-x-7|
|-x-6-x-6-x-6-x-6-x-4-x-4-x-4-x-4-x-6-x-6-x-6-x-6-x-8-x-8-x-8-x-8|
|-x-6-x-6-x-6-x-6-x-6-x-6-x-6-x-6-x-7-x-7-x-7-x-7-x-9-x-9-x-9-x-9|
|-x-4-x-4-x-4-x-4-x-6-x-6-x-6-x-6-x-7-x-7-x-7-x-7-x-9-x-9-x-9-x-9|
|-----------------x-4-x-4-x-4-x-4-x-5-x-5-x-5-x-7-x-7-x-7-x-7-x-7|


VERSE :

  Guitar 1:

|----4-------4-4---4-------4-4----5------5-5---7------7-7|
|-----5------5-5----4------4-4-----5-----5-5----7-----7-7|
|------6-----6-6-----4-----4-4------6----6-6-----8----8-8|   
|-6-6----6-6---------------------------------------------|
|--------------------------------------------------------|
|---------------4-4----4-4-----5-5----5-5----7-7---7-7---|

   Guitar 2:

|-x-4-x-4-x-4-x-4-x-4-x-4-x-4-x-4-x-5-x-5-x-5-x-5-x-7-x-7-x-7-x-7|
|-x-5-x-5-x-5-x-5-x-4-x-4-x-4-x-4-x-5-x-5-x-5-x-5-x-7-x-7-x-7-x-7|
|-x-6-x-6-x-6-x-6-x-4-x-4-x-4-x-4-x-6-x-6-x-6-x-6-x-8-x-8-x-8-x-8|
|-x-6-x-6-x-6-x-6-x-6-x-6-x-6-x-6-x-7-x-7-x-7-x-7-x-9-x-9-x-9-x-9|
|-x-4-x-4-x-4-x-4-x-6-x-6-x-6-x-6-x-7-x-7-x-7-x-7-x-9-x-9-x-9-x-9|
|-----------------x-4-x-4-x-4-x-4-x-5-x-5-x-5-x-7-x-7-x-7-x-7-x-7|

  Guitar 1:

|----4-------4-4---4-------4-4----5------5-5---7------7-7|
|-----5------5-5----4------4-4-----5-----5-5----7-----7-7|
|------6-----6-6-----4-----4-4------6----6-6-----8----8-8|   
|-6-6----6-6---------------------------------------------|
|--------------------------------------------------------|
|---------------4-4----4-4-----5-5----5-5----7-7---7-7---|

   Guitar 2:

|-x-4-x-4-x-4-x-4-x-4-x-4-x-4-x-4-x-5-x-5-x-5-x-5-x-7-x-7-x-7-x-7|
|-x-5-x-5-x-5-x-5-x-4-x-4-x-4-x-4-x-5-x-5-x-5-x-5-x-7-x-7-x-7-x-7|
|-x-6-x-6-x-6-x-6-x-4-x-4-x-4-x-4-x-6-x-6-x-6-x-6-x-8-x-8-x-8-x-8|
|-x-6-x-6-x-6-x-6-x-6-x-6-x-6-x-6-x-7-x-7-x-7-x-7-x-9-x-9-x-9-x-9|
|-x-4-x-4-x-4-x-4-x-6-x-6-x-6-x-6-x-7-x-7-x-7-x-7-x-9-x-9-x-9-x-9|
|-----------------x-4-x-4-x-4-x-4-x-5-x-5-x-5-x-7-x-7-x-7-x-7-x-7|

  Guitar 1:

|----4-------4-4---4-------4-4----5------5-5---7------7-7|
|-----5------5-5----4------4-4-----5-----5-5----7-----7-7|
|------6-----6-6-----4-----4-4------6----6-6-----8----8-8|   
|-6-6----6-6---------------------------------------------|
|--------------------------------------------------------|
|---------------4-4----4-4-----5-5----5-5----7-7---7-7---|

   Guitar 2:

|-x-4-x-4-x-4-x-4-x-4-x-4-x-4-x-4-x-5-x-5-x-5-x-5-x-7-x-7-x-7-x-7|
|-x-5-x-5-x-5-x-5-x-4-x-4-x-4-x-4-x-5-x-5-x-5-x-5-x-7-x-7-x-7-x-7|
|-x-6-x-6-x-6-x-6-x-4-x-4-x-4-x-4-x-6-x-6-x-6-x-6-x-8-x-8-x-8-x-8|
|-x-6-x-6-x-6-x-6-x-6-x-6-x-6-x-6-x-7-x-7-x-7-x-7-x-9-x-9-x-9-x-9|
|-x-4-x-4-x-4-x-4-x-6-x-6-x-6-x-6-x-7-x-7-x-7-x-7-x-9-x-9-x-9-x-9|
|-----------------x-4-x-4-x-4-x-4-x-5-x-5-x-5-x-7-x-7-x-7-x-7-x-7|

  Guitar 1:

|----4-------4-4---4-------4-4----5------5-5---7------7-7|
|-----5------5-5----4------4-4-----5-----5-5----7-----7-7|
|------6-----6-6-----4-----4-4------6----6-6-----8----8-8|   
|-6-6----6-6---------------------------------------------|
|--------------------------------------------------------|
|---------------4-4----4-4-----5-5----5-5----7-7---7-7---|

   Guitar 2:

|-x-4-x-4-x-4-x-4-x-4-x-4-x-4-x-4-x-5-x-5-x-5-x-5-x-7-x-7-x-7-x-7|
|-x-5-x-5-x-5-x-5-x-4-x-4-x-4-x-4-x-5-x-5-x-5-x-5-x-7-x-7-x-7-x-7|
|-x-6-x-6-x-6-x-6-x-4-x-4-x-4-x-4-x-6-x-6-x-6-x-6-x-8-x-8-x-8-x-8|
|-x-6-x-6-x-6-x-6-x-6-x-6-x-6-x-6-x-7-x-7-x-7-x-7-x-9-x-9-x-9-x-9|
|-x-4-x-4-x-4-x-4-x-6-x-6-x-6-x-6-x-7-x-7-x-7-x-7-x-9-x-9-x-9-x-9|
|-----------------x-4-x-4-x-4-x-4-x-5-x-5-x-5-x-7-x-7-x-7-x-7-x-7|

  Guitar 1:

|----4-------4-4---4-------4-4----5------5-5---7------7-7|
|-----5------5-5----4------4-4-----5-----5-5----7-----7-7|
|------6-----6-6-----4-----4-4------6----6-6-----8----8-8|   
|-6-6----6-6---------------------------------------------|
|--------------------------------------------------------|
|---------------4-4----4-4-----5-5----5-5----7-7---7-7---|

   Guitar 2:

|-x-4-x-4-x-4-x-4-x-4-x-4-x-4-x-4-x-5-x-5-x-5-x-5-x-7-x-7-x-7-x-7|
|-x-5-x-5-x-5-x-5-x-4-x-4-x-4-x-4-x-5-x-5-x-5-x-5-x-7-x-7-x-7-x-7|
|-x-6-x-6-x-6-x-6-x-4-x-4-x-4-x-4-x-6-x-6-x-6-x-6-x-8-x-8-x-8-x-8|
|-x-6-x-6-x-6-x-6-x-6-x-6-x-6-x-6-x-7-x-7-x-7-x-7-x-9-x-9-x-9-x-9|
|-x-4-x-4-x-4-x-4-x-6-x-6-x-6-x-6-x-7-x-7-x-7-x-7-x-9-x-9-x-9-x-9|
|-----------------x-4-x-4-x-4-x-4-x-5-x-5-x-5-x-7-x-7-x-7-x-7-x-7|

CHORUS:

Both Guitars:

|-x-12-x-12-x-7-x-7-x-5-x-5-x-5-x-5|
|-x-12-x-12-x-7-x-7-x-5-x-5-x-5-x-5|
|-x-13-x-13-x-8-x-8-x-6-x-6-x-6-x-6|
|-x-14-x-14-x-9-x-9-x-7-x-7-x-7-x-7|
|-x-14-x-14-x-9-x-9-x-7-x-7-x-7-x-7|
|-x-12-x-12-x-7-x-7-x-5-x-5-x-5-x-5|

|-x-12-x-12-x-7-x-7-x-5-x-5-x-5-x-5|
|-x-12-x-12-x-7-x-7-x-5-x-5-x-5-x-5|
|-x-13-x-13-x-8-x-8-x-6-x-6-x-6-x-6|
|-x-14-x-14-x-9-x-9-x-7-x-7-x-7-x-7|
|-x-14-x-14-x-9-x-9-x-7-x-7-x-7-x-7|
|-x-12-x-12-x-7-x-7-x-5-x-5-x-5-x-5|

|-x-12-x-12-x-7-x-7-x-5-x-5-x-5-x-5|
|-x-12-x-12-x-7-x-7-x-5-x-5-x-5-x-5|
|-x-13-x-13-x-8-x-8-x-6-x-6-x-6-x-6|
|-x-14-x-14-x-9-x-9-x-7-x-7-x-7-x-7|
|-x-14-x-14-x-9-x-9-x-7-x-7-x-7-x-7|
|-x-12-x-12-x-7-x-7-x-5-x-5-x-5-x-5|


Guitar 1:

|-4-x-0-0-2-------------------------------------|
|-5-x-2-2-4-------------------------------------|
|-6-x-2-2-4-----------Drum-Roll-----------------|
|-6-x-2-2-4-------------------------------------|
|-4-x-0-0-2-------------------------------------|
|-----------------------------------------------|

  Guitar 2:

|-4-x-5-5-7-------------------------------------|
|-5-x-5-5-7-------------------------------------|
|-6-x-6-6-8-----------Drum-Roll-----------------|
|-6-x-7-7-9-------------------------------------|
|-4-x-7-7-9-------------------------------------|
|-----5-5-7-------------------------------------|

 
Guitar 1:

|-11-12-12-12-11------------------------11-12-11-14-12-11-|
|---------------12/14-14-12-12/14-14-12-------------------|
|---------------------------------------------------------|
|---------------------------------------------------------|
|---------------------------------------------------------|
|---------------------------------------------------------|


  Guitar 2:

|-x-4-x-4-x-4-x-4-x-4-x-4-x-4-x-4-x-5-x-5-x-5-x-5-x-7-x-7-x-7-x-7|
|-x-5-x-5-x-5-x-5-x-4-x-4-x-4-x-4-x-5-x-5-x-5-x-5-x-7-x-7-x-7-x-7|
|-x-6-x-6-x-6-x-6-x-4-x-4-x-4-x-4-x-6-x-6-x-6-x-6-x-8-x-8-x-8-x-8|
|-x-6-x-6-x-6-x-6-x-6-x-6-x-6-x-6-x-7-x-7-x-7-x-7-x-9-x-9-x-9-x-9|
|-x-4-x-4-x-4-x-4-x-6-x-6-x-6-x-6-x-7-x-7-x-7-x-7-x-9-x-9-x-9-x-9|
|-----------------x-4-x-4-x-4-x-4-x-5-x-5-x-5-x-7-x-7-x-7-x-7-x-7|

Guitar 1:

|----------------------------0----0-----0-----0--------|
|-----------------------------------------------4b-4b-4|
|-4b-4b-4b-4b-4b-4b-4b-4b-2-4--2-4--2-4---2-4----------|
|------------------------------------------------------|
|------------------------------------------------------|
|------------------------------------------------------|
 
  Guitar 2:

|-x-4-x-4-x-4-x-4-x-4-x-4-x-4-x-4-x-5-x-5-x-5-x-5-x-7-x-7-x-7-x-7|
|-x-5-x-5-x-5-x-5-x-4-x-4-x-4-x-4-x-5-x-5-x-5-x-5-x-7-x-7-x-7-x-7|
|-x-6-x-6-x-6-x-6-x-4-x-4-x-4-x-4-x-6-x-6-x-6-x-6-x-8-x-8-x-8-x-8|
|-x-6-x-6-x-6-x-6-x-6-x-6-x-6-x-6-x-7-x-7-x-7-x-7-x-9-x-9-x-9-x-9|
|-x-4-x-4-x-4-x-4-x-6-x-6-x-6-x-6-x-7-x-7-x-7-x-7-x-9-x-9-x-9-x-9|
|-----------------x-4-x-4-x-4-x-4-x-5-x-5-x-5-x-7-x-7-x-7-x-7-x-7|

Guitar 1:

|-----------------------------------------------------------------------
|-----------------------------------------------------------------------
|-----------------------------------------------------------------------
|-----------------------------------------------------------------------
|-x-x-x-x-4-4-4-2-0-----------------------------------------------------
|------------------x-x-x-x-4-4-4-2-0-x-x-x-x-5-5-5-3-0-x-x-x-x-7-7-7-5-0

  Guitar 2:

|-x-4-x-4-x-4-x-4-x-4-x-4-x-4-x-4-x-5-x-5-x-5-x-5-x-7-x-7-x-7-x-7|
|-x-5-x-5-x-5-x-5-x-4-x-4-x-4-x-4-x-5-x-5-x-5-x-5-x-7-x-7-x-7-x-7|
|-x-6-x-6-x-6-x-6-x-4-x-4-x-4-x-4-x-6-x-6-x-6-x-6-x-8-x-8-x-8-x-8|
|-x-6-x-6-x-6-x-6-x-6-x-6-x-6-x-6-x-7-x-7-x-7-x-7-x-9-x-9-x-9-x-9|
|-x-4-x-4-x-4-x-4-x-6-x-6-x-6-x-6-x-7-x-7-x-7-x-7-x-9-x-9-x-9-x-9|
|-----------------x-4-x-4-x-4-x-4-x-5-x-5-x-5-x-7-x-7-x-7-x-7-x-7|

Guitar 1:

|-----------------------------------------------------------------------
|-----------------------------------------------------------------------
|-----------------------------------------------------------------------
|-----------------------------------------------------------------------
|-x-x-x-x-4-4-4-2-0-----------------------------------------------------
|------------------x-x-x-x-4-4-4-2-0-x-x-x-x-5-5-5-3-0-x-x-x-x-7-7-7-5-0

  Guitar 2:

|-x-4-x-4-x-4-x-4-x-4-x-4-x-4-x-4-x-5-x-5-x-5-x-5-x-7-x-7-x-7-x-7|
|-x-5-x-5-x-5-x-5-x-4-x-4-x-4-x-4-x-5-x-5-x-5-x-5-x-7-x-7-x-7-x-7|
|-x-6-x-6-x-6-x-6-x-4-x-4-x-4-x-4-x-6-x-6-x-6-x-6-x-8-x-8-x-8-x-8|
|-x-6-x-6-x-6-x-6-x-6-x-6-x-6-x-6-x-7-x-7-x-7-x-7-x-9-x-9-x-9-x-9|
|-x-4-x-4-x-4-x-4-x-6-x-6-x-6-x-6-x-7-x-7-x-7-x-7-x-9-x-9-x-9-x-9|
|-----------------x-4-x-4-x-4-x-4-x-5-x-5-x-5-x-7-x-7-x-7-x-7-x-7|

CHORUS:

Both Guitars:

|-x-12-x-12-x-7-x-7-x-5-x-5-x-5-x-5|
|-x-12-x-12-x-7-x-7-x-5-x-5-x-5-x-5|
|-x-13-x-13-x-8-x-8-x-6-x-6-x-6-x-6|
|-x-14-x-14-x-9-x-9-x-7-x-7-x-7-x-7|
|-x-14-x-14-x-9-x-9-x-7-x-7-x-7-x-7|
|-x-12-x-12-x-7-x-7-x-5-x-5-x-5-x-5|

|-x-12-x-12-x-7-x-7-x-5-x-5-x-5-x-5|
|-x-12-x-12-x-7-x-7-x-5-x-5-x-5-x-5|
|-x-13-x-13-x-8-x-8-x-6-x-6-x-6-x-6|
|-x-14-x-14-x-9-x-9-x-7-x-7-x-7-x-7|
|-x-14-x-14-x-9-x-9-x-7-x-7-x-7-x-7|
|-x-12-x-12-x-7-x-7-x-5-x-5-x-5-x-5|

|-x-12-x-12-x-7-x-7-x-5-x-5-x-5-x-5|
|-x-12-x-12-x-7-x-7-x-5-x-5-x-5-x-5|
|-x-13-x-13-x-8-x-8-x-6-x-6-x-6-x-6|
|-x-14-x-14-x-9-x-9-x-7-x-7-x-7-x-7|
|-x-14-x-14-x-9-x-9-x-7-x-7-x-7-x-7|
|-x-12-x-12-x-7-x-7-x-5-x-5-x-5-x-5|

Guitar 1:

|-4-x-0-0-2-------------------------------------|
|-5-x-2-2-4-------------------------------------|
|-6-x-2-2-4-----------Drum-Roll-----------------|
|-6-x-2-2-4-------------------------------------|
|-4-x-0-0-2-------------------------------------|
|-----------------------------------------------|

  Guitar 2:

|-4-x-5-5-7-------------------------------------|
|-5-x-5-5-7-------------------------------------|
|-6-x-6-6-8-----------Drum-Roll-----------------|
|-6-x-7-7-9-------------------------------------|
|-4-x-7-7-9-------------------------------------|
|-----5-5-7-------------------------------------|




VERSE :

  Guitar 1:

|----4-------4-4---4-------4-4----5------5-5---7------7-7|
|-----5------5-5----4------4-4-----5-----5-5----7-----7-7|
|------6-----6-6-----4-----4-4------6----6-6-----8----8-8|   
|-6-6----6-6---------------------------------------------|
|--------------------------------------------------------|
|---------------4-4----4-4-----5-5----5-5----7-7---7-7---|

   Guitar 2:

|-x-4-x-4-x-4-x-4-x-4-x-4-x-4-x-4-x-5-x-5-x-5-x-5-x-7-x-7-x-7-x-7|
|-x-5-x-5-x-5-x-5-x-4-x-4-x-4-x-4-x-5-x-5-x-5-x-5-x-7-x-7-x-7-x-7|
|-x-6-x-6-x-6-x-6-x-4-x-4-x-4-x-4-x-6-x-6-x-6-x-6-x-8-x-8-x-8-x-8|
|-x-6-x-6-x-6-x-6-x-6-x-6-x-6-x-6-x-7-x-7-x-7-x-7-x-9-x-9-x-9-x-9|
|-x-4-x-4-x-4-x-4-x-6-x-6-x-6-x-6-x-7-x-7-x-7-x-7-x-9-x-9-x-9-x-9|
|-----------------x-4-x-4-x-4-x-4-x-5-x-5-x-5-x-7-x-7-x-7-x-7-x-7|

  Guitar 1:

|----4-------4-4---4-------4-4----5------5-5---7------7-7|
|-----5------5-5----4------4-4-----5-----5-5----7-----7-7|
|------6-----6-6-----4-----4-4------6----6-6-----8----8-8|   
|-6-6----6-6---------------------------------------------|
|--------------------------------------------------------|
|---------------4-4----4-4-----5-5----5-5----7-7---7-7---|

   Guitar 2:

|-x-4-x-4-x-4-x-4-x-4-x-4-x-4-x-4-x-5-x-5-x-5-x-5-x-7-x-7-x-7-x-7|
|-x-5-x-5-x-5-x-5-x-4-x-4-x-4-x-4-x-5-x-5-x-5-x-5-x-7-x-7-x-7-x-7|
|-x-6-x-6-x-6-x-6-x-4-x-4-x-4-x-4-x-6-x-6-x-6-x-6-x-8-x-8-x-8-x-8|
|-x-6-x-6-x-6-x-6-x-6-x-6-x-6-x-6-x-7-x-7-x-7-x-7-x-9-x-9-x-9-x-9|
|-x-4-x-4-x-4-x-4-x-6-x-6-x-6-x-6-x-7-x-7-x-7-x-7-x-9-x-9-x-9-x-9|
|-----------------x-4-x-4-x-4-x-4-x-5-x-5-x-5-x-7-x-7-x-7-x-7-x-7|

  Guitar 1:

|----4-------4-4---4-------4-4----5------5-5---7------7-7|
|-----5------5-5----4------4-4-----5-----5-5----7-----7-7|
|------6-----6-6-----4-----4-4------6----6-6-----8----8-8|   
|-6-6----6-6---------------------------------------------|
|--------------------------------------------------------|
|---------------4-4----4-4-----5-5----5-5----7-7---7-7---|

   Guitar 2:

|-x-4-x-4-x-4-x-4-x-4-x-4-x-4-x-4-x-5-x-5-x-5-x-5-x-7-x-7-x-7-x-7|
|-x-5-x-5-x-5-x-5-x-4-x-4-x-4-x-4-x-5-x-5-x-5-x-5-x-7-x-7-x-7-x-7|
|-x-6-x-6-x-6-x-6-x-4-x-4-x-4-x-4-x-6-x-6-x-6-x-6-x-8-x-8-x-8-x-8|
|-x-6-x-6-x-6-x-6-x-6-x-6-x-6-x-6-x-7-x-7-x-7-x-7-x-9-x-9-x-9-x-9|
|-x-4-x-4-x-4-x-4-x-6-x-6-x-6-x-6-x-7-x-7-x-7-x-7-x-9-x-9-x-9-x-9|
|-----------------x-4-x-4-x-4-x-4-x-5-x-5-x-5-x-7-x-7-x-7-x-7-x-7|

  Guitar 1:

|----4-------4-4---4-------4-4----5------5-5---7------7-7|
|-----5------5-5----4------4-4-----5-----5-5----7-----7-7|
|------6-----6-6-----4-----4-4------6----6-6-----8----8-8|   
|-6-6----6-6---------------------------------------------|
|--------------------------------------------------------|
|---------------4-4----4-4-----5-5----5-5----7-7---7-7---|

   Guitar 2:

|-x-4-x-4-x-4-x-4-x-4-x-4-x-4-x-4-x-5-x-5-x-5-x-5-x-7-x-7-x-7-x-7|
|-x-5-x-5-x-5-x-5-x-4-x-4-x-4-x-4-x-5-x-5-x-5-x-5-x-7-x-7-x-7-x-7|
|-x-6-x-6-x-6-x-6-x-4-x-4-x-4-x-4-x-6-x-6-x-6-x-6-x-8-x-8-x-8-x-8|
|-x-6-x-6-x-6-x-6-x-6-x-6-x-6-x-6-x-7-x-7-x-7-x-7-x-9-x-9-x-9-x-9|
|-x-4-x-4-x-4-x-4-x-6-x-6-x-6-x-6-x-7-x-7-x-7-x-7-x-9-x-9-x-9-x-9|
|-----------------x-4-x-4-x-4-x-4-x-5-x-5-x-5-x-7-x-7-x-7-x-7-x-7|

  Guitar 1:

|----4-------4-4---4-------4-4----5------5-5---7------7-7|
|-----5------5-5----4------4-4-----5-----5-5----7-----7-7|
|------6-----6-6-----4-----4-4------6----6-6-----8----8-8|   
|-6-6----6-6---------------------------------------------|
|--------------------------------------------------------|
|---------------4-4----4-4-----5-5----5-5----7-7---7-7---|

   Guitar 2:

|-x-4-x-4-x-4-x-4-x-4-x-4-x-4-x-4-x-5-x-5-x-5-x-5-x-7-x-7-x-7-x-7|
|-x-5-x-5-x-5-x-5-x-4-x-4-x-4-x-4-x-5-x-5-x-5-x-5-x-7-x-7-x-7-x-7|
|-x-6-x-6-x-6-x-6-x-4-x-4-x-4-x-4-x-6-x-6-x-6-x-6-x-8-x-8-x-8-x-8|
|-x-6-x-6-x-6-x-6-x-6-x-6-x-6-x-6-x-7-x-7-x-7-x-7-x-9-x-9-x-9-x-9|
|-x-4-x-4-x-4-x-4-x-6-x-6-x-6-x-6-x-7-x-7-x-7-x-7-x-9-x-9-x-9-x-9|
|-----------------x-4-x-4-x-4-x-4-x-5-x-5-x-5-x-7-x-7-x-7-x-7-x-7|

CHORUS:

Both Guitars:

|-x-12-x-12-x-7-x-7-x-5-x-5-x-5-x-5|
|-x-12-x-12-x-7-x-7-x-5-x-5-x-5-x-5|
|-x-13-x-13-x-8-x-8-x-6-x-6-x-6-x-6|
|-x-14-x-14-x-9-x-9-x-7-x-7-x-7-x-7|
|-x-14-x-14-x-9-x-9-x-7-x-7-x-7-x-7|
|-x-12-x-12-x-7-x-7-x-5-x-5-x-5-x-5|

|-x-12-x-12-x-7-x-7-x-5-x-5-x-5-x-5|
|-x-12-x-12-x-7-x-7-x-5-x-5-x-5-x-5|
|-x-13-x-13-x-8-x-8-x-6-x-6-x-6-x-6|
|-x-14-x-14-x-9-x-9-x-7-x-7-x-7-x-7|
|-x-14-x-14-x-9-x-9-x-7-x-7-x-7-x-7|
|-x-12-x-12-x-7-x-7-x-5-x-5-x-5-x-5|

|-x-12-x-12-x-7-x-7-x-5-x-5-x-5-x-5|
|-x-12-x-12-x-7-x-7-x-5-x-5-x-5-x-5|
|-x-13-x-13-x-8-x-8-x-6-x-6-x-6-x-6|
|-x-14-x-14-x-9-x-9-x-7-x-7-x-7-x-7|
|-x-14-x-14-x-9-x-9-x-7-x-7-x-7-x-7|
|-x-12-x-12-x-7-x-7-x-5-x-5-x-5-x-5|


Guitar 1:

|-4-x-0-0-2-------------------------------------|
|-5-x-2-2-4-------------------------------------|
|-6-x-2-2-4-----------Drum-Roll-----------------|
|-6-x-2-2-4-------------------------------------|
|-4-x-0-0-2-------------------------------------|
|-----------------------------------------------|

  Guitar 2:

|-4-x-5-5-7-------------------------------------|
|-5-x-5-5-7-------------------------------------|
|-6-x-6-6-8-----------Drum-Roll-----------------|
|-6-x-7-7-9-------------------------------------|
|-4-x-7-7-9-------------------------------------|
|-----5-5-7-------------------------------------|
            
Hard to play? Try these video lessons and learn fast. | Correct




comments powered by Disqus
↑ Back to top | Tablatures and chords are parodies/interpretations of the original songs. You may use it for private study, scholarship, research or language learning purposes only