» » »

Specials, Monkey Man Tabs (ver.1)

Artists:  A B C D E F G H I J K L M N O P Q R S T U V W X Y Z # 

Monkey Man Tabs (ver.1)

Specials Tabs
Rating:
3/5 (4 votes)
Monkey Man lessons Tabs too difficult? Try these video lessons and learn fast
                The intro isnt 100% but its pretty accurate
The Specials
Monkey Man          key - ^ bend

Intro/Outro
e|---5----5---------------------/--15------15------------------|
B|---5----5------5--------------/--15------15------15/17-------|
G|-----7-----7-------7--5--------------17------17---------17---|
D|-----^-----^--------------7-----------^-------^---------^----|
A|-------------------------------------------------------------|
E|-------------------------------------------------------------|

e|---5------5------------------/--15-15--17-17--/---3----------|
B|---5------5----5-------------/--15-15--17-17--/---3----------|
G|------7-----7-----7---5--------------------------------------|
D|------^-----^-------------7----------------------------------|
A|-------------------------------------------------------------|
E|-------------------------------------------------------------|

Verse/Chorus
e|---3----x----x----3------||    this is the chord progression
B|---3----5----7----3------||    throughout the entire song..the rhythm is
G|---4----5----7----4------||    easy to figure out
D|---5----5----7----5------||
A|-------------------------||
E|-------------------------||
     G    C    D    G

bass
G|------------------------------------------------------------------|
D|-----------2---0----------2---0---------------------------2---0---|
A|----------------------------------3-3-3----5-5-5------------------|
E|---0---3----------0---3-----------------------------0---3---------|
            

comments powered by Disqus
↑ Back to top | Specials Tabs for Monkey Man. Lyrics for acoustic guitar and electric guitar. Tablatures and chords are parodies/interpretations of the original songs. You may use it for private study, scholarship, research or language learning purposes only