» » »

Specials, Monkey Man Bass tabs (ver.2)

Artists:  A B C D E F G H I J K L M N O P Q R S T U V W X Y Z # 

Monkey Man Bass tabs (ver.2)

Specials Tabs
 Rating:
4.2/5 (5 votes)
Monkey Man lessons Tabs too difficult? Try these video lessons and learn fast
1
                -------------------------------------------------------------------------------
			     Monkey Man - The Specials
-------------------------------------------------------------------------------


Tuning: Standard

Intro: (Play Twice)

G|---------------------------------------------------------------------------|
D|----5------5----5---5---5--------------------------------------------------|
A|---------5-----5---5---5------3333--55-------------------------------------|
E|----------------------------------------3-3--------------------------------|

Verse: This is the whole song until the outro

G|---------------------------------------------------------------------------|
D|------2--------------2------------020------------2-------------------------|
A|----------5--------------5----323------32------------5---------------------|
E|--33-----------33-----------3--------------3-------------------------------|
                              ^You must play this middle section very quickly for 
it to sound correct!


If you would prefer to play: E|---0h3---| instead of the E|---33---| that sounds fine too.


The outro is simply the intro so return to the top at the end of the song.




I'm 99% this is correct, the intro is taken from a live version not 
on the album but its just a little fancier, if 
you want to play the album version intro it starts with just G and doesn't add the D.


| /  slide up
| \  slide down
| h  hammer-on
| p  pull-off
| ~  vibrato
| +  harmonic
| x  Mute note
===============================================================================
            
Submit corrections

comments powered by Disqus
↑ Back to top | Specials Bass for Monkey Man. Lyrics for acoustic guitar and electric guitar. 1 Tablatures and chords are parodies/interpretations of the original songs. You may use it for private study, scholarship, research or language learning purposes only