» » »

Span, Don't Think The Way They Do Tabs (ver.2)

Artists:  A B C D E F G H I J K L M N O P Q R S T U V W X Y Z # 

Don't Think The Way They Do Tabs (ver.2)

Span Tabs
 Rating:
4.3/5 (6 votes)
Don't Think The Way They Do lessons Tabs too difficult? Try these video lessons and learn fast
                Listen to song for timing and strumming patterns etc, 
enjoy!

Drop D

INTRO
E-------------------------------------------------------------|
B-------------------------------------------------------------|
G-------------------------------------------------------------| (x2)
D------------------------3-1----------------------1-3-1-3-1---|
A---5-5-5-4-4-4-3-3-3----3-1--5-5-5-4-4-4-3-3-3---1-3-1-3-1---|
E------------------------3-1----------------------1-3-1-3-1---|

You can also play: A---10-10-10-9-9-9-8-8-8-(Original way) instead of 5-4-3
                       


VERSE ("they are rock and roll rebels with tea..."etc) 
the bass plays the 10-9-8 or 5-4-3 whilst the guitar plays:
E-------------------------------------------------------------|
B-------------------------------------------------------------|
G-------------------------------------------------------------| (x4)
D------------------------3-1----------------------1-3-1-3-1---|
A------------------------3-1----------------------1-3-1-3-1---|
E------------------------3-1----------------------1-3-1-3-1---|

CHORUS 
E-------------------------------------------------------------|
B-------------------------------------------------------------|
G-------------------------------------------------------------|
D--10-8-3-1-3-1--6-6-6-6-6-10-10-10-10-10-10-10-10-10-10------|
A--10-8-3-1-3-1--6-6-6-6-6-10-10-10-10-10-10-10-10-10-10------|
E--10-8-3-1-3-1--6-6-6-6-6-10-10-10-10-10-10-10-10-10-10------|
  "enough!.........im not like the others..." etc

E-------------------------------------------------------------|
B-------------------------------------------------------------|
G-------------------------------------------------------------|
D---13-13-13-13-13-6-6-6-6-6-10-10-10-10-10-10-10-10-10-10-10-|
A---13-13-13-13-13-6-6-6-6-6-10-10-10-10-10-10-10-10-10-10-10-|
E---13-13-13-13-13-6-6-6-6-6-10-10-10-10-10-10-10-10-10-10-10-|

E-------------------------|
B-------------------------|
G-------------------------|etc, (x2)
D---10-10-10-10-1-3-1-3-1-|
A---10-10-10-10-1-3-1-3-1-|
E---10-10-10-10-1-3-1-3-1-|

REPEAT INTRO
REPEAT VERSE ONCE, THEN PLAY INTRO. LISTEN TO THE TRACK U'LL SEE WHAT I MEAN.

REPEAT CHORUS

then play beginning of chorus:
E-----------------|
B-----------------|
G-----------------| (x4)
D---10-8-3-1-3-1--|
A---10-8-3-1-3-1--|
E---10-8-3-1-3-1--|

E-------------|
B-------------| im not sure about this part..he uses an effect
G-------------| but if you don't have an
D---7-9-11-16-| effects pedal just bend each note.
A-------------| this is played by itself once then underneath Jarle singing.
E-------------|

underneath this at the end, and then when ^ this fades out, u can play:
E-----------------------------------------|
B-----------------------------------------|
G-----------------------------------------| play this over and over till 
D---6-6-6-6-13-13-13-13-6-6-6-6-3-3-3-3---| the very end???
A---6-6-6-6-13-13-13-13-6-6-6-6-3-3-3-3---|
E---6-6-6-6-13-13-13-13-6-6-6-6-3-3-3-3---|

E-----------------------------------------|
B-----------------------------------------|
G-----------------------------------------|
D---10-10-10-9-9-9-8-8-8-7-7-6-6-3-1------|
A---10-10-10-9-9-9-8-8-8-7-7-6-6-3-1------|
E---10-10-10-9-9-9-8-8-8-7-7-6-6-3-1------|
            
Submit corrections

comments powered by Disqus
↑ Back to top | Span Tabs for Don't Think The Way They Do. Lyrics for acoustic guitar and electric guitar. Tablatures and chords are parodies/interpretations of the original songs. You may use it for private study, scholarship, research or language learning purposes only