» » »

Span, Don't Think The Way They Do Tabs (ver.1)

Artists:  A B C D E F G H I J K L M N O P Q R S T U V W X Y Z # 

Don't Think The Way They Do Tabs (ver.1)

Span Tabs
Rating:
5/5 (4 votes)
Don't Think The Way They Do lessons Tabs too difficult? Try these video lessons and learn fast
                #------------------------------------------------------------------------------##



Instrument: Guitar


Tuning: Dropped D (D A D G B E)

You'll just have to figure out the rhythm and numbers of repeats for yourself.
It's all here; just skip back and fourth to find the right section. The solo is
probably not 100% correct, but just play around it and you'll get it right. The
The palm-muted part of the verse is sometimes only played by the bass. Listen
to the recording. SPAN ROCKS.
Comments/Rants: Just mail me.


Intro/Verse
  Gtr I
  PM--------------------------|        PM------------------|
|-----------------|------------------|-----------------------|-----------|
|-----------------|------------------|-----------------------|-----------|
|-----------------|------------------|-----------------------|-----------|
|-----------------|-------------4-2--|-----------------------|-2-4-2-4-2-|
|-4-4-4-3-3-3-3-2-|-2-2-2-1-1-1-4-2--|-4-4-4-3-3-3-3-2-2-2-2-|-2-4-2-4-2-|
|-----------------|-------------4-2--|-----------------------|-2-4-2-4-2-|

 Bridge
|-------------|-------------|----|
|-------------|-------------|----|
|-6-4---------|-6-4---------|----|
|-6-4-4-2-4-2-|-6-4-4-2-2-4-|----|
|-4-2-4-2-4-2-|-4-2-4-2-2-4-|----|
|-----4-2-4-2-|-----4-2-2-4-|----|


 
  Chorus 
                 3x           PM----------------------------|
|------------------||---------||-----------------|--------------------|
|-----------------o||---------||-----------------|--------------------|
|-2-2-----6-6------||-2-2-----||-----------------|--------------------|
|-2-2-4-4-6-6-2-2--||-2-2-4-4-||-----------------|-------------4-2----|
|-0-0-4-4-4-4-2-2-o||-0-0-4-4-||-4-4-4-3-3-3-3-2-|-2-2-2-1-1-1-4-2----|
|-----4-4-----2-2--||-----4-4-||-----------------|-------------4-2----|

  Solo
|-----------|---------------|-----------|--------------|----|
|-----------|---------------|-----------|--------------|----|
|--------11-|---------------|--------11-|--------------|----|
|-7-9-11----|-11-9-11-------|-7-9-11----|-11-9---------|----|
|-----------|---------7-9-7-|-----------|------9-7-9-7-|----|
|-----------|---------------|-----------|--------------|----|

  Gtr I
|-----------|--------------|-----------|--------------|--------------------|
|-----------|--------------|-----------|--------------|--------------------|
|--------11-|--------------|--------11-|--------------|--------------------|
|-7-9-11----|-11-9---------|-7-9-11----|-11-9---------|--------------------|
|-----------|------9-7-9-7-|-----------|------9-7-9-7-|--------------------|
|-----------|--------------|-----------|--------------|--------------------|
|
|  Gtr II                                               PM------------|
|-----------|--------------|-----------|--------------|--------------------|
|-----------|--------------|-----------|--------------|--------------------|
|-----------|--------------|-----------|--6-4---------|-2-2-2-2------------|
|-----------|--------------|-----------|--6-4-4-2-4-2-|-2-2-2-2-4-4-4-4----|
|-----------|--------------|-----------|--4-2-4-2-4-2-|-0-0-0-0-4-4-4-4----|
|-----------|--------------|-----------|------4-2-4-2-|---------4-4-4-4----|


|---------|----|
|---------|----|
|-6-6-----|----|
|-6-6-2-2-|----|
|-4-4-2-2-|----|
|-----2-2-|----|


|----------------------------------|
|----------------------------------|
|-6-6-6-5-5-5-5-4-4-4-3-3-3--------|
|---------------------------4-2----|
|-4-4-4-3-3-3-3-2-2-2-1-1-1-4-2----|
|---------------------------4-2----|



***************************************************************************************
***************************************************************************************
            

comments powered by Disqus
↑ Back to top | Span Tabs for Don't Think The Way They Do. Lyrics for acoustic guitar and electric guitar. Tablatures and chords are parodies/interpretations of the original songs. You may use it for private study, scholarship, research or language learning purposes only