>
 >
Starside

Starside Guitar Tabs

Spacehog - Starside chords, tabs, tablatures, lyrics

Guitar lessons | Add/correct | Request | Top 50 tabs Artists:  A B C D E F G H I J K L M N O P Q R S T U V W X Y Z 0-9

Starside Guitar Tabs – Spacehog

CD, Sheet music, Poster

Do you like Starside? Share with your friends now
TabsTabs v2
#


This song is one of spacehogs best so I tabbed it
out. I'm pretty sure it's right so have fun.

Intro:

E|-------------------------------------------------|
B|-------------------------------------------------|
G|----55----55----55----55-----5-----5-----5-----5-|
D|-5h7---5h7---5h7---5h7------5-----5-----5-----5--|
A|-------------------------5h7---5h7---5h7---5h7---|
E|-------------------------------------------------|

E|-------------------------------------------------|
B|-------------------------------------------------|
G|----55----55----55----55-----5-----5-----5-----5-|
D|-5h7---5h7---5h7---5h7------5-----5-----5-----5--|
A|-------------------------5h7---5h7---5h7---5h7---|
E|-------------------------------------------------|

E|-------------------------------------------------|
B|-------------------------------------------------|
G|----55----55----55----55-----5-----5-----5-----5-|
D|-5h7---5h7---5h7---5h7------5-----5-----5-----5--|
A|-------------------------5h7---5h7---5h7---5h7---|
E|-------------------------------------------------|
                      Verse 1:
E|-------------------------------------------------|
B|-------------------------------------------------|
G|----55----55----55-------5~5~x3-x7~~-----7----8--|
D|-5h7---5h7---5h7---5h75~-5~5~x3-x7~~-----7--88---|
A|-------------------------3~3~x1-x5~~-55/7---6--6-|
E|-------------------------------------------------|

E|------------------------------ 5~~------10-11~~--|
B|-10-8-------------8/10~10\----10~~-7/87-10-11~~--|
G|- 9-7-x5~~-----5~-7/ 9~ 9\-7-----------7---------|
D|------x5~~-----5~-----------9~-------------------|
A|------x3~~-33/5----------------------------------|
E|-------------------------------------------------|

E|--------------15~~~~~-||
B|--------------20~~~~~-||
G|----------12~---------||
D|-------12-12~---------||
A|-------12-------------||
E|-3//11----------------||

Pre-Chorus:
E|-----|-----|-----|-----||
B|-----|-----|-----|-----||
G|-----|-----|-----|-----||
D|--6--|--3--|--6--|--3--||
A|--6--|--3--|--6--|--3--||
E|--4--|--1--|--4--|--1--||


Chorus 1:
E|-------------------------------------------------------------|
B|--/1312108~~~~~-/1312108~~8h10810-/1312108~~8108---------/13-|
G|------------------------------------------------79-79~~~-----|
D|-------------------------------------------------------------|
A|-------------------------------------------------------------|
E|-------------------------------------------------------------|

E|-----------------------------------------------------------||
B|-12108~~~108-/1312108~~8h108~-/1312108~~8108---1012131213--||
G|--------------------------------------------79-------------||
D|-----------------------------------------------------------||
A|-----------------------------------------------------------||
E|-----------------------------------------------------------||

Verse 2:
E|-------------------------------------||
B|-------------------------------------||
G|-5~~~-3~~~-7~~~~~~-8~~~-7~~~-5~~~~~~-||
D|-5~~~-3~~~-7~~~~~~-8~~~-7~~~-5~~~~~~-||
A|-3~~~-1~~~-5~~~~~~-6~~~-5~~~-3~~~~~~-||
E|-------------------------------------||

Chorus 2:
E|------------------------------------------------------------|
B|--/1312108~~~~~-/1312108~~~~~-/1312108~~8108----------/1312-|
G|---------------------------------------------79-79~~~-------|
D|------------------------------------------------------------|
A|------------------------------------------------------------|
E|------------------------------------------------------------|

E|----------------------------------------------------------||
B|-108~~~~~-/1312108~~~8h10108-/1312108~~8108--81012131213--||
G|-------------------------------------------79-------------||
D|----------------------------------------------------------||
A|----------------------------------------------------------||
E|----------------------------------------------------------||

Interlude:
E|---------------------------------|***************************
B|---------------------------------|*ONE GUITARIST PLAYS THIS *
G|-5-5-X33/7-7-X77-8-8-----5-5-X55-|*3 TIMES AND ANOTHER GOES *
D|-5-5-X33/7-7-X77-8-8-X55-5-5-X55-|*ON TO THE NEXT PART AFTER*
A|-3-3-X11/5-5-X55-6-6-X55-3-3-X33-|*PLAYING IT ONCE.         *
E|---------------------X33---------|***************************

E|-----------------------------------------------------------|
B|-----------------------------------------------------------|
G|--5-5-X33/7-7-----7----8---------5-57b~r5-----5----3----7--|
D|--5-5-X33/7-7-----7----8----7----5-------7----5----3----7--|
A|--3-3-X11/5-5-55/7--6/8-----7-3/5----------3/5--1/3--5/7---|
E|-------------------------5/7-------------------------------|

E|-----------------------------------------------------------|
B|---------------------------------/16151311~98~54~--8~6~4~~-|
G|-7-97-------8---------5-X5-5-5-------------------/8--------|
D|-----107----8----7----5-X5-5-5-----------------------------|
A|---------6/8-----7-3/5--X3-3-3-----------------------------|
E|--------------5/7------------------------------------------|

E|-------------------------||
B|-16151311~98~54~~~-/8~~\-||
G|-------------------------||
D|-------------------------||
A|-------------------------||
E|-------------------------||

Chorus 3:
E|------------------------------------------------------------|
B|--/1312108~~~~~-/1312108~~~~~-/1312108~~8108----------/1312-|
G|---------------------------------------------79-79~~~-------|
D|------------------------------------------------------------|
A|------------------------------------------------------------|
E|------------------------------------------------------------|

E|-----------------------------------------------------------|
B|--108~~8h10810-/1312108~~~108-/1312108~~8108--81012131213--|
G|--------------------------------------------79-------------|
D|-----------------------------------------------------------|
A|-----------------------------------------------------------|
E|-----------------------------------------------------------|

E|-----------------------------------------------------------|
B|-13~~~13~~~13~~~13~~~13~~~13~~~13~~~13~~~13~~~13~~~13~~~13~|
G|-----------------------------------------------------------|
D|-----------------------------------------------------------|
A|-----------------------------------------------------------|
E|-----------------------------------------------------------|

E|----------------------------------------------------------||
B|~131210810810813------------------------/1312108108531~~~~||
G|----------------------------------------------------------||
D|----------------------------------------------------------||
A|----------------------------------------------------------||
E|----------------------------------------------------------||

Here's The Order:

Intro:     (00:00)-1x
Verse 1:   (00:21)-1x
Pre-Chorus:(00:44)-1x
Chorus:    (00:57)-1x
Verse 2:   (01:20)-1x
Pre-Chorus:(01:44)-1x
Chorus 2:  (01:56)-1x
Interlude: (02:19)-1x
Chorus 3:  (02:51)-1x
  END SONG ON A "D"





Comments


Popular Spacehog tabs & chords
In The Meantime Bass Tabs
In The Meantime 1 Bass Tabs
The Last Dictator 1 Bass Tabs
Cruel To Be Kind Chords
Space Is The Place Chords
At Least I Got Laid Intro Tabs
Beautiful Girl Tabs
Captain Freeman Tabs
Cruel To Be Kind Tabs
Skylark Tabs


Song lyrics



↑ Back to top | Tablatures and chords are parodies/interpretations of the original songs. You may use it for private study, scholarship, research or language learning purposes only
© 2014 AZChords.com Contact us | Privacy policy | DMCA | Add/correct tabs | Request tabs | Top 50 tabs