>
 >
In The Meantime

In The Meantime Bass Tabs

Spacehog - In The Meantime chords, tabs, tablatures, lyrics

Guitar lessons | Add/correct | Request | Top 50 tabs Artists:  A B C D E F G H I J K L M N O P Q R S T U V W X Y Z 0-9

In The Meantime Bass Tabs – Spacehog

CD, Sheet music, Poster

Do you like In The Meantime? Share with your friends now
Bass TabsBass Tabs v2Bass Tabs v3ChordsTabsTabs v2Tabs v3Ukulele
-----------------------------------------------------------------------------
-----------------------------------------------------------------------------


Tuning: Standard

Intro 00:13                       3X                                      1X
G|-------------------------797------|-7-7-7-7-----------------79999999------|
D|-------789----.---------0---0797\-|---------7-7-7-7-----------------------|
A|------7----6-78--9-9\-------------|-----------------7-7-7-7---------------|
E|-0-0-----------------2/-----------|---------------------------------------|                 
   1 + 2 + 3 + 4 + 1 + 2 + 3 + 4 +    1 + 2 + 3 + 4 + 1 + 2 + 3 + 4 +

Chorus I 00:35                    3X                                      1X
G|----------------------------------|---------------------------------------|
D|----------------------------------|---------------------------------------|
A|---------5-5-5-5-------0-232320---|---------------------------------------|
E|-5-5-5-5---------2-2-2---------20-|-5-5-5-503-3-3-302-2-2-2-2-2-2-2-------|                 
   1 + 2 + 3 + 4 + 1 + 2 + 3 + 4 +    1 + 2 + 3 + 4 + 1 + 2 + 3 + 4 +

Verse I 00:59                     3X                                      1X
G|-------------------------797------|-7-7-7-7-----------------79999999------|
D|-------789----.---------0---0797\-|---------7-7-7-7-----------------------|
A|------7----6-78--9-9\-------------|-----------------7-7-7-7---------------|
E|-0-0-----------------2/-----------|---------------------------------------|                 
   1 + 2 + 3 + 4 + 1 + 2 + 3 + 4 +    1 + 2 + 3 + 4 + 1 + 2 + 3 + 4 +

Chorus II 1:22                    3X                                      1X
G|----------------------------------|---------------------------------------|
D|----------------------------------|---------------------------------------|
A|---------5-5-5-5-------0-232320---|---------------------------------------|
E|-5-5-5-5---------2-2-2---------20-|-5-5-5-503-3-3-302-2-2-2-2-2-2-2-------|                 
   1 + 2 + 3 + 4 + 1 + 2 + 3 + 4 +    1 + 2 + 3 + 4 + 1 + 2 + 3 + 4 +

Verse II 1:46                     3X                                      1X
G|-------------------------797------|-7-7-7-7-----------------79999999------|
D|-------789----.---------0---0797\-|---------7-7-7-7-----------------------|
A|------7----6-78--9-9\-------------|-----------------7-7-7-7---------------|
E|-0-0-----------------2/-----------|---------------------------------------|                 
   1 + 2 + 3 + 4 + 1 + 2 + 3 + 4 +    1 + 2 + 3 + 4 + 1 + 2 + 3 + 4 +

Chorus III 2:07                   3X                                      1X 
G|----------------------------------|---------------------------------------|
D|----------------------------------|---------------------------------------|
A|---------5-5-5-5-------0-232320---|---------------------------------------|
E|-5-5-5-5---------2-2-2---------20-|-5-5-5-503-3-3-302-2-2-2-2-2-2-2-------|                 
   1 + 2 + 3 + 4 + 1 + 2 + 3 + 4 +    1 + 2 + 3 + 4 + 1 + 2 + 3 + 4 +

Interlude/Solo 2:30       - There's room for improvisation here -
G|----------------------------------|---------------------------------------|
D|---------------------4-4-5-5-7-7--|-----5-5-----4-4-----2-2-----2-2-------|
A|-3-3-3-3-3-3-3-3-5-5--------------|---------------------------------------|
E|----------------------------------|-3-3-----2-2-----0-0-----0-0-----------|                 
   1 + 2 + 3 + 4 + 1 + 2 + 3 + 4 +    1 + 2 + 3 + 4 + 1 + 2 + 3 + 4 +

                                                      . . . .. .
G|----------------------------------|-----------------9-8-7-65-5.-.-.-------|
D|---------------------0-0-2-2-4-4--|-----2-2----2-2------------9-8-7-------|
A|-3-3-3-3-3-3-3-3-2-2--------------|---------------------------------------|
E|----------------------------------|-0-0-----0-0---------------------------|                 
   1 + 2 + 3 + 4 + 1 + 2 + 3 + 4 +    1 + 2 + 3 + 4 + 1 + 2 + 3 + 4 +


End Chorus 2:53                   7X                                      1X
G|----------------------------------|---------------------------------------|
D|----------------------------------|-------------------------9-998-88------|
A|---------5-5-5-5-------0-232320---|---------5-5-5-5-9-9-9-9---------------|
E|-5-5-5-5---------2-2-2---------20-|-5-5-5-5-------------------------------|                 
   1 + 2 + 3 + 4 + 1 + 2 + 3 + 4 +    1 + 2 + 3 + 4 + 1 + 2 + 3 + 4 +

Coda 3:40-Lots of bass solos here-5X                                      1X
G|----------------------------------|--------------------------------------|
D|----------------------------------|--------------------------------------|
A|---------5-5-5-5-------0-232320---|---------5-5-5-5---------2-2-1-1------|
E|-5-5-5-5---------2-2-2---------20-|-5-5-5-5---------2-2-2-2--------------|                 
   1 + 2 + 3 + 4 + 1 + 2 + 3 + 4 +    1 + 2 + 3 + 4 + 1 + 2 + 3 + 4 +

G|----------------------------------|---------------------------------|-----|
D|----------------------------------|---------------------------------|-----|
A|---------5-5-------------2-2-1-1--|---------5-5-------------2-2-1-1-|-0---|
E|-5-5-------------2-2--------------|-5-5-------------2-2-------------|-----|                 
   1 + 2 + 3 + 4 + 1 + 2 + 3 + 4 +    1 + 2 + 3 + 4 + 1 + 2 + 3 + 4 +   1~

| /  slide up
| \  slide down
| h  hammer-on
| p  pull-off
| ~  vibrato
| +  harmonic
| x  Mute note
=============================================================================





Comments


Popular Spacehog tabs & chords
Cruel To Be Kind Bass Tabs
The Last Dictator 1 Bass Tabs
Last Dictator Chords
To Be A Millionaire Chords
Carry On 1 Tabs
In The Mean Time Tabs
Mungo City Tabs
Never Coming Dow Tabs
Ship Wrecked Tabs
Space Is The Place Ukulele


Song lyrics



↑ Back to top | Tablatures and chords are parodies/interpretations of the original songs. You may use it for private study, scholarship, research or language learning purposes only
© 2014 AZChords.com Contact us | Privacy policy | DMCA | Add/correct tabs | Request tabs | Top 50 tabs