» » »

Spacehog, Carry On Tabs (ver.2)

Artists:  A B C D E F G H I J K L M N O P Q R S T U V W X Y Z # 

Carry On Tabs (ver.2)

Spacehog Tabs
 Rating:
4/5 (4 votes)
Carry On lessons Tabs too difficult? Try these video lessons and learn fast
1
                intro
verse
e------------1-0------0------1-0----------------------1--------3---|
B-1----1---------0--1------------0-------1-1---1------1-1------3-3-|
G-0-------0---------2----2---------------2-0-0---0--2-2-2-2----0-0-| 
D-2--2--------------2------2--------0----3-2--------3-3-3-3----0-0-|
A-3-----------------0------------------3-3-3--------3--------------|
E---------------------------------------------------1--------3-----|

 you´re not the only one..
e:-------5-5-------------|------------------------------3-3-|
B:-6--6--6-8--6--1-1-1-1-|-6--6-6-6-6-6-6-6-------------3-3-|
G:-7--7--7-5--5--0-0-2-0-|-7--7-7-7-7-7-7-7--2-2-2-2----0-0-|
D:-7--7--7-7--7--2-2-3-2-|-7--7-7-7-7-7-7-7--3-3-3-3----0-0-|
A:-5-----5-5--5--3-3-3-3-|-5--5-5-5-5-5-5-5--3-3-3-3--------|
E:-----------------------|-------------------1-1-1-1--3-----|

solo
e:-------------------------------------------------------2-2----3--3-|
B:-2-2-2-2-2--2-3-5--3-3-2-2--2-2-2-3--2-2-2-2-2-2-2-0---2-2----3--3-|
G:-2-2-2-2-2--2-2-2--2-2-2-2--4-4-2-2--2-2-2-2-2-2-2-0-2-2-2-2--0--0-|
D:-2-2-2-2-2--2-2-2--2-2-2-2--2-2-2-2--2-2-2-2-2-2-2-0-3-3-3-3--0--0-|
A:-0----------0-0-0--0-0-0-0--0-0-0-0--0-0-0-0-0-0-0-0-3-3-3-3--0--0-|
E:-----------------------------------------------------1-1-1-1--3--3-|

ending
e------------1-0------0------1-0----------------------1--------3------------|
B-1----1---------0--1------------0-------1-1---1------1-1------3-3--------1-|
G-0-------0---------2----2---------------2-0-0---0--2-2-2-2----0-0--------0-| 
D-2--2--------------2------2--------0----3-2--------3-3-3-3----0-0--------2-|
A-3-----------------0------------------3-3-3--------3---------------------3-|
E---------------------------------------------------1--------3--------------|
            
Submit corrections

comments powered by Disqus
↑ Back to top | Spacehog Tabs for Carry On. Lyrics for acoustic guitar and electric guitar. 1 Tablatures and chords are parodies/interpretations of the original songs. You may use it for private study, scholarship, research or language learning purposes only