» » »

Smash Mouth, Can't Get Enough Of You Baby Tabs (ver.1)

Artists:  A B C D E F G H I J K L M N O P Q R S T U V W X Y Z # 

Can't Get Enough Of You Baby Tabs (ver.1)

Smash Mouth Tabs
Rating:
0/5 (0 votes)
Can't Get Enough Of You Baby lessons Tabs too difficult? Try these video lessons and learn fast
                Intro: Keyboard and Guitar

      
      E|--------------------------------|
      B|--------------------------------|
      G|----------4-4-4-----------------| X2
      D|---4-4-4--4-4-4--4-4-4----------|
      A|---4-4-4--2-2-2--4-4-4--2-2-3-4-|
      E|---2-2-2---------2-2-2----------|


 Verse:
        
      E|--------------------------------|
      B|--------------------------------|
      G|----------4-4-4-----------------| X5
      D|---4-4-4--4-4-4--4-4-4----------|
      A|---4-4-4--2-2-2--4-4-4--2-2-3-4-|
      E|---2-2-2---------2-2-2----------|


      E|--------------------------------|
      B|--------------------------------|
      G|----------4-4-4---------4-------| 
      D|---4-4-4--4-4-4--4-4-4--4-------|
      A|---4-4-4--2-2-2--4-4-4--2---2-4-|
      E|---2-2-2---------2-2-2----------|

Bridge:

      E|------------------------------------------|
      B|------------------------------------------|
      G|-6-6-6-6-6-6-6-6--8-8-8--10-10-10-11-11---| 
      D|-6-6-6-6-6-6-6-6--8-8-8--10-10-10-11-11---|
      A|-4-4-4-4-4-4-4-4--6-6-6--8--8--8--9--9----|
      E|------------------------------------------|
     
      E|----------------------------------------------------------|
      B|----------------------------------------------------------|
      G|-6-6-6-6-6-6-6-6------------------------------------------| 
      D|-6-6-6-6-6-6-6-6--6-6-6-6--8-8-8-8--9-9-9-9-9-9-9-9-------|
      A|-4-4-4-4-4-4-4-4--6-6-6-6--8-8-8-8--9-9-9-9-9-9-9-9-------|
      E|------------------4-4-4-4--6-6-6-6--7-7-7-7-7-7-7-7-------|


      E|-------------------------------------|
      B|-------------------------------------|
      G|-6-6-6-6-6-6-6-6---------------------| 
      D|-6-6-6-6-6-6-6-6---------------------|
      A|-4-4-4-4-4-4-4-4---------------------|
      E|-------------------------------------|


 Verse:
        
      E|--------------------------------|
      B|--------------------------------|
      G|----------4-4-4-----------------| X6
      D|---4-4-4--4-4-4--4-4-4----------|
      A|---4-4-4--2-2-2--4-4-4--2-2-3-4-|
      E|---2-2-2---------2-2-2----------|


      E|--------------------------------|
      B|--------------------------------|
      G|----------4-4-4---------4-------| 
      D|---4-4-4--4-4-4--4-4-4--4-------|
      A|---4-4-4--2-2-2--4-4-4--2---2-4-|
      E|---2-2-2---------2-2-2----------|

Bridge:

      E|------------------------------------------|
      B|------------------------------------------|
      G|-6-6-6-6-6-6-6-6--8-8-8--10-10-10-11-11---| 
      D|-6-6-6-6-6-6-6-6--8-8-8--10-10-10-11-11---|
      A|-4-4-4-4-4-4-4-4--6-6-6--8--8--8--9--9----|
      E|------------------------------------------|
     
      E|----------------------------------------------------------|
      B|----------------------------------------------------------|
      G|-6-6-6-6-6-6-6-6------------------------------------------| 
      D|-6-6-6-6-6-6-6-6--6-6-6-6--8-8-8-8--9-9-9-9-9-9-9-9-------|
      A|-4-4-4-4-4-4-4-4--6-6-6-6--8-8-8-8--9-9-9-9-9-9-9-9-------|
      E|------------------4-4-4-4--6-6-6-6--7-7-7-7-7-7-7-7-------|


      E|-------------------------------------|
      B|-------------------------------------|
      G|-6-6-6-6-6-6-6-6---------------------| 
      D|-6-6-6-6-6-6-6-6--X2-----------------|
      A|-4-4-4-4-4-4-4-4---------------------|
      E|-------------------------------------|
 
Keyboard Solo and Verse:
        
      E|--------------------------------|
      B|--------------------------------|
      G|----------4-4-4-----------------| X15
      D|---4-4-4--4-4-4--4-4-4----------|
      A|---4-4-4--2-2-2--4-4-4--2-2-3-4-|
      E|---2-2-2---------2-2-2----------|


      E|--------------------------------|
      B|--------------------------------|
      G|----------4-4-4---------4-------| 
      D|---4-4-4--4-4-4--4-4-4--4-------|
      A|---4-4-4--2-2-2--4-4-4--2---2-4-|
      E|---2-2-2---------2-2-2----------|
Bridge:

      E|------------------------------------------|
      B|------------------------------------------|
      G|-6-6-6-6-6-6-6-6--8-8-8--10-10-10-11-11---| 
      D|-6-6-6-6-6-6-6-6--8-8-8--10-10-10-11-11---|
      A|-4-4-4-4-4-4-4-4--6-6-6--8--8--8--9--9----|
      E|------------------------------------------|
     
      E|----------------------------------------------------------|
      B|----------------------------------------------------------|
      G|-6-6-6-6-6-6-6-6------------------------------------------| 
      D|-6-6-6-6-6-6-6-6--6-6-6-6--8-8-8-8--9-9-9-9-9-9-9-9-------|
      A|-4-4-4-4-4-4-4-4--6-6-6-6--8-8-8-8--9-9-9-9-9-9-9-9-------|
      E|------------------4-4-4-4--6-6-6-6--7-7-7-7-7-7-7-7-------|


      E|-------------------------------------|
      B|-------------------------------------|
      G|-6-6-6-6-6-6-6-6---------------------| 
      D|-6-6-6-6-6-6-6-6--X2-----------------|
      A|-4-4-4-4-4-4-4-4---------------------|
      E|-------------------------------------|

Ending      
      
      E|--------------------------------|
      B|--------------------------------|
      G|----------4-4-4-----------------| X8
      D|---4-4-4--4-4-4--4-4-4----------|
      A|---4-4-4--2-2-2--4-4-4--2-2-3-4-|
      E|---2-2-2---------2-2-2----------|
            

comments powered by Disqus
↑ Back to top | Smash Mouth Tabs for Can't Get Enough Of You Baby. Lyrics for acoustic guitar and electric guitar. Tablatures and chords are parodies/interpretations of the original songs. You may use it for private study, scholarship, research or language learning purposes only