» » »

Smash Mouth, I M A Believer Tabs (ver.1)

Artists:  A B C D E F G H I J K L M N O P Q R S T U V W X Y Z # 

I M A Believer Tabs (ver.1)

Smash Mouth Tabs
Rating:
0/5 (0 votes)
I M A Believer lessons Tabs too difficult? Try these video lessons and learn fast
                I actually did the other version years ago and now that i don't
 suck so much and that people have written to me to get the rest... i'm putting it in here... 
so disregard the other one... i am 99.8% sure of this
i play it this way... so feel free to choose how you wanna play it.
if you wanna send me an email please title it with sum title so 
I know its's for this... 

KEY
h=hit
^=bend
~=vibrato
= slide 

Intro

E|----------------------------------|-
B|----------------------------------|-
G|----------------------------------|-
D|----2----2-----2----2-------------|-
A|-2h4--2h4---2h4--2h4--2h4---------|-
E|------------------------------4-0-|-

VERSE (after a bit of assesment i've decided to change it to this)

E|-2-2-|-1-1-|-2-2|-2-2|-
B|-2-2-|-2-2-|-2-2|-2-2|-
G|-----|-----|----|----|-
D|-----|-----|----|----|-x2
A|-----|-----|----|----|-
E|-----|-----|----|----|-


E|--2-2-|-2-2|-2-2-|-2-2|-
B|--4-4-|-2-2|-4-4-|-2-2|-
G|------|----|-----|----|-
D|------|----|-----|----|-
A|------|----|-----|----|-
E|------|----|-----|----|-
 love was out to get me ...


E|-----------|-
B|-----------|-
G|--66666666-|-
D|--66666666-|-
A|--44444444-|-
E|-----------|-
disappointment .....

CHORUS

E|----------------------------|-
B|----------------------------|-
G|----------------------------|-
D|----------------------------|-
A|-----1-2-2-1-----1-2-4-2-1--|-
E|-2-2---------2-2------------|-


	
i'm in love


        B	F#	`		   E
i'm a believer, i couldn't leave her if i tried      (is that the words)??


All Are barre chords except the E is an open E ...




solo bit


E|-----|-------------|-------------|----|-
B|-----|-------------|-------------|----|-
G|-----|-------------|-------------|----|-
D|--2-3|-444-2----2-3|-444-2----2-3|-4-|-
A|-4---|-------44----|-------4-4---|----|-
E|-----|-------------|-------------|----|-


E|------|------------|----------------|-
B|------|------------|----------------|-
G|------|------------|--2-------------|-
D|--2-3-|-444-2---2-3|-4-4-3-2-2------|-
A|-4----|-------44---|-----------4-3-2|-
E|------|------------|----------------|-

 that should be it....
i did change it... i actually wrote the other one when i was beginning.... 
but now i've progressed.... thanks for getting me off my lazy behind
 whoever you are and making me finish it properly. ( the guy asking for the rest who emailed me )
if you don't like it in this key... play it one step up... so it turns
 to G so just put all the notes and that a fret up and then
 apperently thats the way it's played... cause apperently 
it's in G... i like it my way.

if anyone disagrees with me on this... your deaf like i was when 
i wrote the first tab... or your probably right... write to me with suggestions
or if you'd like anything else tabbed.

cheers
-C-
            
Submit corrections

comments powered by Disqus
↑ Back to top | Smash Mouth Tabs for I M A Believer. Lyrics for acoustic guitar and electric guitar. Tablatures and chords are parodies/interpretations of the original songs. You may use it for private study, scholarship, research or language learning purposes only