» » »

With Every Light Tabs (ver.1)

Artists:  A B C D E F G H I J K L M N O P Q R S T U V W X Y Z # 

With Every Light Tabs (ver.1)

Smashing Pumpkins
Rating:
0/5 (0 votes)

Hard to play? Try these video lessons and learn fast.
                The Smashing Pumpkins
With every Light
Off MACHINA: the machines of God (2000)
Written by Billy Corgan
Eb 

Alright, this is the guitar tab to support
the Piano.

Guitar 1: Billy
Guitar 2: James

One guitar doubles another


|--1-----0------1------0------1------3---------|
|--1-----1------3------1------1------3---------|
|--2-----2------2------0------3------3---------| 
|--3-----3------0------2------3------5---------|
|--3-----3-------------3------1------5---------|
|--1---------------------------------3---------|

|--1-----0------1------0------1------3---------|
|--1-----1------3------1------1------3---------|
|--2-----2------2------0------3------3---------| 
|--3-----3------0------2------3------5---------|
|--3-----3-------------3------1------5---------|
|--1---------------------------------3---------|

|--1-----0------1------0------1------3---------|
|--1-----1------3------1------1------3---------|
|--2-----2------2------0------3------3---------| 
|--3-----3------0------2------3------5---------|
|--3-----3-------------3------1------5---------|
|--1---------------------------------3---------|

|--1-----0---------|
|--1-----1---------|
|--2-----2---------|
|--3-----3---------|
|--3-----3---------|
|--1---------------|

|--1------1------1------0---------|
|--3------3------1------1---------|
|--2------2------3------2---------|
|--0------0------3------2---------|
|----------------1------0---------|
|---------------------------------|

|--1------1------1------0------3---------|
|--3------3------1------1------3---------|
|--2------2------3------2------3---------|
|--0------0------3------2------5---------|
|----------------1------0------5---------|
|------------------------------3---------|

|--1-----0------1------0------1------3------3------0---------|
|--1-----1------3------1------1------3------3------1---------|
|--2-----2------2------0------3------3------3------2---------| 
|--3-----3------0------2------3------5------5------2---------|
|--3-----3-------------3------1------5------5------0---------|
|--1---------------------------------3------3----------------|

|--1-----0------1------0------1------3------1------0---------|
|--1-----1------3------1------1------3------1------1---------|
|--2-----2------2------0------3------3------2------2---------| 
|--3-----3------0------2------3------5------3------3---------|
|--3-----3-------------3------1------5------3------3---------|
|--1---------------------------------3------1----------------|

|--1------1------1------0---------|
|--3------3------1------1---------|
|--2------2------3------2---------|
|--0------0------3------2---------|
|----------------1------0---------|
|---------------------------------|

|--1------1------1------0------3---------|
|--3------3------1------1------3---------|
|--2------2------3------2------3---------|
|--0------0------3------2------5---------|
|----------------1------0------5---------|
|------------------------------3---------|

|--1------1------0------0---------|
|--1------1------1------1---------|
|--3------3------2------0---------|
|--3------3------2------2---------|
|--1------1------0------3---------|
|---------------------------------|

|--1------1------0------0---------|
|--1------1------1------1---------|
|--3------3------2------0---------|
|--3------3------2------2---------|
|--1------1------0------3---------|
|---------------------------------|

|--1------1------0------0---------|
|--1------1------1------1---------|
|--3------3------2------0---------|
|--3------3------2------2---------|
|--1------1------0------3---------|
|---------------------------------|

|--1------1---------|
|--1------1---------|
|--3------3---------|
|--3------3---------|
|--1------1---------|
|-------------------|

|--1-----0------1------0------1------3------3------0---------|
|--1-----1------3------1------1------3------3------1---------|
|--2-----2------2------0------3------3------3------2---------| 
|--3-----3------0------2------3------5------5------2---------|
|--3-----3-------------3------1------5------5------0---------|
|--1---------------------------------3------3----------------|

|--1-----0------1------0------1------1------0------0---------|
|--1-----1------3------1------1------1------1------1---------|
|--2-----2------2------0------3------3------2------0---------| 
|--3-----3------0------2------3------3------2------2---------|
|--3-----3-------------3------1------1------0------3---------|
|--1---------------------------------------------------------|

|--1------1------0------0---------|
|--1------1------1------1---------|
|--3------3------2------0---------|
|--3------3------2------2---------|
|--1------1------0------3---------|
|---------------------------------|

|--1------1------0------0---------|
|--1------1------1------1---------|
|--3------3------2------0---------|
|--3------3------2------2---------|
|--1------1------0------3---------|
|---------------------------------|

|--1------1------0------0---------|
|--1------1------1------1---------|
|--3------3------2------0---------|
|--3------3------2------2---------|
|--1------1------0------3---------|
|---------------------------------|

|--1------1------0------0---------|
|--1------1------1------1---------|
|--3------3------2------0---------|
|--3------3------2------2---------|
|--1------1------0------3---------|
|---------------------------------|

|--1------1------0------0---------|
|--1------1------1------1---------|
|--3------3------2------0---------|
|--3------3------2------2---------|
|--1------1------0------3---------|
|---------------------------------|

|--1------1------1------1---------1---|
|--1------1------1------1---------1---|
|--3------3------3------3---------3---|
|--3------3------3------3---------3---|
|--1------1------1------1---------1---|
|-------------------------------------|

"Could you believe in Heaven…if Heaven was all you had"
            
Hard to play? Try these video lessons and learn fast. | Correct




comments powered by Disqus
↑ Back to top | Tablatures and chords are parodies/interpretations of the original songs. You may use it for private study, scholarship, research or language learning purposes only