» » »

To Sheila Tabs (ver.1)

Artists:  A B C D E F G H I J K L M N O P Q R S T U V W X Y Z # 

To Sheila Tabs (ver.1)

Smashing Pumpkins
Rating:
0/5 (0 votes)

Hard to play? Try these video lessons and learn fast.
                hope u enjoy it			Location: Pottschach 
 
Smashing Pumpkins     
TO SHEILA
Adore

Verse:

---
|---------4---|----------------|-----------------
|-----6-------|---------4---4-3|---------3-------
|---6---6---6-|-----6----------|-----4-------4---
|-4-----------|---6---6---6----|---4---4---4---4-
|-------------|-4--------------|-2---------------

		Twighlight fades          to blicered

|------------------|-------------|---------------
|------------------|---------4---|---------------
|----------3-------|-----6-------|---------4--4-3
|-----4--------4---|---6---6---6-|-----6---------
|---4---4----4---4-|-4-----------|---6---6---6---
|-2----------------|-------------|-4-------------
 Avalon				Sky´s cruel     torch


|-----------------|-----------------|
|-----------------|-----------------|
|---------3-------|---------3-------|
|-----4-------4---|-----4-------4---|
|---4---4---4---4-|---4---4---4---4-|
|-2---------------|-2---------------|

on aching          autobahn

|-----------------|-----------------|
|-----------------|-----------------|
|---------3-------|---------3-------|
|-----4-------4---|-----4-------4---|
|---4---4---4---4-|---4---4---4---4-|
|-2---------------|-2---------------|

into the      uncertain 

|-----------------|
|-----------------|
|-----------------|
|-----6---4---4-3-|
|---6---6---6-----|
|-4---------------|

    divine

|----------------|-----------------|
|---------4------|-----------------|
|-----6-------6--|-----------------|
|---6---6---6---6|-----6---4---4-3-|
|-4--------------|---6---6---6-----|
|----------------|-4---------------|


we scream into the last 

|
|---------4-------
|-----6-------6---
|---6---6---6---6-
|-4---------------
|-----------------

Chorus the same:

If you have any Question, pls contact me
            
Hard to play? Try these video lessons and learn fast. | Correct




comments powered by Disqus
↑ Back to top | Tablatures and chords are parodies/interpretations of the original songs. You may use it for private study, scholarship, research or language learning purposes only