» » »

Smashing Pumpkins, The Fellowship Tabs (ver.1)

Artists:  A B C D E F G H I J K L M N O P Q R S T U V W X Y Z # 

The Fellowship Tabs (ver.1)

Smashing Pumpkins Tabs
 Rating:
4/5 (4 votes)
The Fellowship lessons Tabs too difficult? Try these video lessons and learn fast
1
                (Intro)
The Smashing Pumpkins
The Fellowship
Teargarden by Kaleidyscope, Volume 1. Songs for a Sailor

Standard Tune

Synth Intro
|-1----1----1----1----1-1-1-1--|
|------------------------------|
|------------------------------|
|------------------------------| X4
|------------------------------|
|------------------------------|

|------4--|
|----6----|
|--5------|
|---------| X10
|---------|
|---------|


"Get on Board"
Synthesizer
|----4---4---4---4---4---|
|---6---6---6---6---6----|
|--5---5---5---5---5-----|
|------------------------|
|------------------------|
|------------------------|

Guitar
|--------------------------------|
|-------1----1----------4--------|
|-----------------3----------3---|
|--3-------3----3----3-----3-----|
|--------------------------------|
|--------------------------------|

Synthesizer
|---3---3---3---3---3--|
|--4---4---4---4---4---|
|-3---3---3---3---3----|
|----------------------|
|----------------------|
|----------------------|

Guitar
|--------------------1---|
|----------------4-------|
|-1---3-------1----1---1-|
|------------------------|
|------------------------|
|------------------------|

Synthesizer
|----4---4---4---4---4-|
|---6---6---6---6---6--|
|--6---6---6---6---6---|
|----------------------|
|----------------------|
|----------------------|

|----8---8---8---8--8----|
|---9---9---9---9--9-----|
|-10--10--10--10--10-----|
|------------------------|
|------------------------|
|------------------------|

Basically, for the intro, just keep repeating
            
Submit corrections

comments powered by Disqus
↑ Back to top | Smashing Pumpkins Tabs for The Fellowship. Lyrics for acoustic guitar and electric guitar. 1 Tablatures and chords are parodies/interpretations of the original songs. You may use it for private study, scholarship, research or language learning purposes only