>
 >
Stubleine

Stubleine Guitar Tabs

Smashing Pumpkins - Stubleine chords, tabs, tablatures, lyrics

Guitar lessons | Add/correct | Request | Top 50 tabs Artists:  A B C D E F G H I J K L M N O P Q R S T U V W X Y Z 0-9

Stubleine Guitar Tabs – Smashing Pumpkins

CD, Sheet music, Poster

Do you like Stubleine? Share with your friends now
Tabs
I'm not going to take credit for this but i think its probably the most accurate that 
seen so far. This was taken from a SP fan site..And i just want to share it with everyone 
they could finally play it the RIGHT way. Enjoy

*Stumbleine*


Tuning: Eb Ab Db Gb Bb Eb


VERSE
                                                                   x3
|--------------------------------------------------------------------|
|-7-------7-------8---------7----------------------------------------|
|-----0-----0---0------0--------0------------------------------------|
|---0---------0------0--------0---0------0-----0---------0-------0---|
|-9-----9---------10-----10-9----------9-----9-----9---9-------7-----|
|------------------------------------7-----7-----7---7-----0-5-----0-|


PRECHORUS
|----------------------------------------------------|
|----------------------------------------------------|
|----------------------------------------------------|
|-----0-----0---------0-----0----------0------0------|
|---5-----5-----5---7-----7-----7---10-----10-----10-|
|-3-----3-----3---5-----5-----5---8------8------8----|

 -------------------------------------------------|
 -------------------------------------------------|
 -------------------------------------------------|
 -----0-----0---------0-----0---------0-----0-----|
 ---5-----5-----5---7-----7-----7---9-----9-----9-|
 -3-----3-----3---5-----5-----5---7-----7-----7---|


VERSE 2
                                                                   x3
|--------------------------------------------------------------------|
|-7-------7-------8---------7----------------------------------------|
|-----0-----0---0------0--------0------------------------------------|
|---0---------0------0--------0---0------0-----0---------0-------0---|
|-9-----9---------10-----10-9----------9-----9-----9---9-------7-----|
|------------------------------------7-----7-----7---7-----0-5-----0-|


PRECHORUS 2
|----------------------------------------------------|
|----------------------------------------------------|
|----------------------------------------------------|
|-----0-----0---------0-----0----------0------0------|
|---5-----5-----5---7-----7-----7---10-----10-----10-|
|-3-----3-----3---5-----5-----5---8------8------8----|

 -------------------------------------------------|
 -------------------------------------------------|
 -------------------------------------0-----0-----|
 -----0-----0---------0-----0---------------------|
 ---5-----5-----5---7-----7-----7---9-----9-----9-|
 -3-----3-----3---5-----5-----5---7-----7-----7---|


CHORUS - Play the following 2x
                                 x2
|----------------------------------|------------------------------------|
|----------------------------------|------------------------------------|
|-------0-------0-------0-----0----|------0------0----------0-----0-----|
|----------------------------------|------------------------------------|
|----12-------7-------5-----5------|---10-----10-----10---5-----5-----5-|
|-10------0-5-----0-3-----3-----3/-|-8------8------8----3-----3-----3---|


VERSE 3
|----------------------------------|
|----------------------------------|
|----------------------------------|
|------------------------------0---|
|----------------------------7-----|
|-/7-----------------------5-----0-|

                                                                   x3
|--------------------------------------------------------------------|
|-7-------7-------8---------7----------------------------------------|
|-----0-----0---0------0--------0------------------------------------|
|---0---------0------0--------0---0------0-----0---------0-------0---|
|-9-----9---------10-----10-9----------9-----9-----9---9-------7-----|
|------------------------------------7-----7-----7---7-----0-5-----0-|


PRECHORUS 3
|----------------------------------------------------|
|----------------------------------------------------|
|-----0-----0---------0-----0----------0------0------|
|----------------------------------------------------|
|---5-----5-----5---7-----7-----7---10-----10-----10-|
|-3-----3-----3---5-----5-----5---8------8------8----|

 ---------------------------------|
 ---------------------------------|
 -----0-----0---------0-----0-----|
 ---------------------------------|
 ---5-----5-----5---7-----7-----7-|
 -3-----3-----3---5-----5-----5---|


CHORUS 2 - Play the following 2x
                                 x2
|----------------------------------|------------------------------------|
|----------------------------------|------------------------------------|
|-------0-------0-------0-----0----|------0------0----------0-----0-----|
|----------------------------------|------------------------------------|
|----12-------7-------5-----5------|---10-----10-----10---5-----5-----5-|
|-10------0-5-----0-3-----3-----3/-|-8------8------8----3-----3-----3---|


OUTRO
|---------------------------------|
|---------------------------------|
|-----0-----0---------0-------0---|
|---------------------------------|
|---9-----9-----9---9-------7-----|
|-7-----7-----7---7-----0-5-----0-|

End on this
|----------------------------------------------------------------------|
|-7-------7-------8---------7------------------------------------0-----|
|-----0-----0---0------0--------0--------------------------------0-----|
|---0---------0------0--------0---0------0-----0---------0------(0)----|
|-9-----9---------10-----10-9----------9-----9-----9---9-------7-------|
|------------------------------------7-----7-----7---7-----0-5---------|





Comments


Popular Smashing Pumpkins tabs & chords
Crush 2 Bass Tabs
Daphne Descends 3 Bass Tabs
Thirty Three Bass Tabs
Mayonaise 4 Chords
Summer Chords
Cherry 1 Tabs
The End Is The Beginning Is The End 2 Tabs
Christmas Time Ukulele
Im Doing The Best I Can Ukulele
Pale Horse Ukulele


Song lyrics



↑ Back to top | Tablatures and chords are parodies/interpretations of the original songs. You may use it for private study, scholarship, research or language learning purposes only
© 2014 AZChords.com Contact us | Privacy policy | DMCA | Add/correct tabs | Request tabs | Top 50 tabs