» » »

Smashing Pumpkins, So So Pretty Tabs (ver.1)

Artists:  A B C D E F G H I J K L M N O P Q R S T U V W X Y Z # 

So So Pretty Tabs (ver.1)

Smashing Pumpkins Tabs
Rating:
0/5 (0 votes)
So So Pretty lessons Tabs too difficult? Try these video lessons and learn fast
                Guitar 1                   x6
|---0------0------0----3--3-3-|
|-----0------0------0--0--0-0-|
|----------------------0--0-0-|
|--------2------3-------------|
|-3---------------------------|
|-----------------------------|
|Guitar 2                   x6
|-----------------------------|
|-----0------0------0---------|
|---0------0------0---------0-|
|--------2------3------5-/7---|
|-3---------------------------|
|-----------------------------|

|-------------------|
|-6--------8--------|
|-0--------0--------|
|-X--------X--------|
|-8--------8--------|
|-------------------|

 Guitar 1                   x4
|---0------0------0----3--3-3-|
|-----0------0------0--0--0-0-|
|----------------------0--0-0-|
|--------2------3-------------|
|-3---------------------------|
|-----------------------------|
|Guitar 2                   x4
|-----------------------------|
|-----0------0------0---------|
|---0------0------0---------0-|
|--------2------3------5-/7---|
|-3---------------------------|
|-----------------------------|

|-------------------3--------3--------|
|-3--------1--------0--------0--------|
|-0--------0--------0--------0--------|
|-X--------X--------0--------0--------|
|-5--------3--------X--------X--------|
|-------------------3--------3--------|

                                    x2
|-------------------------------------|
|-1--------5--------6--------8--------|
|-0--------0--------0--------0--------|
|-X--------X--------X--------X--------|
|-3--------7--------8--------8--------|
|-------------------------------------|

|----------------------------3--------|
|-3--------5--------6--------0--------|
|-0--------0--------0--------0--------|
|-X--------X--------X--------0--------|
|-5--------7--------8--------X--------|
|----------------------------3--------|

|-------------------------------------|
|-6--------5--------3--------3--------|
|-0--------0--------0--------0--------|
|-X--------X--------X--------X--------|
|-8--------7--------5--------5--------|
|-------------------------------------|

                                    x2
|-0--------1--------3--------1--------|
|-1--------1--------1--------1--------|
|-2--------2--------2--------2--------|
|-2--------2--------2--------2--------|
|-0--------0--------0--------0--------|
|-------------------------------------|

|-3--------3--------3--------3--------|
|-0--------0--------0--------0--------|
|-0--------0--------0--------0--------|
|-0--------0--------0--------0--------|
|-X--------X--------X--------X--------|
|-3--------1--------3--------1--------|

 Guitar 1                   x4
|---0------0------0----3--3-3-|
|-----0------0------0--0--0-0-|
|----------------------0--0-0-|
|--------2------3-------------|
|-3---------------------------|
|-----------------------------|
|Guitar 2                   x4
|-----------------------------|
|-----0------0------0---------|
|---0------0------0---------0-|
|--------2------3------5-/7---|
|-3---------------------------|
|-----------------------------|

|-------------------------------------|
|-3--------1--------1--------5--------|
|-0--------0--------0--------0--------|
|-X--------X--------X--------X--------|
|-5--------3--------3--------7--------|
|-------------------------------------|

|-------------------------------------|
|-6--------6--------6--------3--------|
|-0--------0--------0--------0--------|
|-X--------X--------X--------X--------|
|-8--------8--------8--------5--------|
|-------------------------------------|

|-------------------------------------|
|-1--------5--------6--------3--------|
|-0--------0--------0--------0--------|
|-X--------X--------X--------X--------|
|-3--------7--------8--------5--------|
|-------------------------------------|

|-------------------------------------|
|-1--------5--------6--------6--------|
|-0--------0--------0--------0--------|
|-X--------X--------X--------X--------|
|-3--------7--------8--------8--------|
|-------------------------------------|

|----------------------------3--------|
|-3--------5--------6--------0--------|
|-0--------0--------0--------0--------|
|-X--------X--------X--------0--------|
|-5--------7--------8--------X--------|
|----------------------------3--------|

|-------------------------------------|
|-6--------5--------3--------3--------|
|-0--------0--------0--------0--------|
|-X--------X--------X--------X--------|
|-8--------7--------5--------5--------|
|-------------------------------------|

End on
|-0----3--------|
|-1----1--------|
|-0----0--------|
|-2----2--------|
|-3----3--------|
|---------------|
            
Submit corrections

comments powered by Disqus
↑ Back to top | Smashing Pumpkins Tabs for So So Pretty. Lyrics for acoustic guitar and electric guitar. Tablatures and chords are parodies/interpretations of the original songs. You may use it for private study, scholarship, research or language learning purposes only