>
 >
Slow Dawn

Slow Dawn Guitar Tabs

Smashing Pumpkins - Slow Dawn chords, tabs, tablatures, lyrics

Guitar lessons | Add/correct | Request | Top 50 tabs Artists:  A B C D E F G H I J K L M N O P Q R S T U V W X Y Z 0-9

Slow Dawn Guitar Tabs – Smashing Pumpkins

CD, Sheet music, Poster

Do you like Slow Dawn? Share with your friends now
ChordsTabsUkulele
The Smashing Pumpkins
Off MACHINA II: the friends and enemies of modern music (2000)
Written by Billy Corgan


Play everything with reverb except the solo. Billys guitar is tuned in a very strange
way: he tunes the B string to A. 

Tuning:

Guitar 1: Billy: EbAbDbGbAbeb
Guitar 2: James: Eb



Intro:

Pick slide over delayed string/Volume swell

and:

Billy
|--0--0---0--0---|
|--0--0---0--0---|
|--0--0---0--0---| 2 times
|--4--2---6--4---|
|--4--2---6--4---|
|--2--0---4--2---|

James (faster;reverb)
|----------------------------|
|----------------------------|
|----------------------------| 2 times
|----------------------------|
|--4--4-4-2--2-6--6-6-4--4---|
|--2--2-2-0--0-4--4-4-2--2---|


Verse:

Billy
|--0--0---0--0---|
|--0--0---0--0---|
|--0--0---0--0---| 3 times
|--4--2---6--4---|
|--4--2---6--4---|
|--2--0---4--2---|

James (reverb)
|----------------|
|----------------|
|----------------| 3 times
|--4--2---6--4---|
|--4--2---6--4---|
|--2--0---4--2---|

"Midnight people..."


Billy
|--0---0---|
|--0---0---|
|--0---0---|
|--7---7---|
|--7---7---|
|--5---5---|

James (reverb)
|----------|
|----------|
|----------|
|--7---7---|
|--7---7---|
|--5---5---|


Chorus:

Billy
|--0---0---0--0----|
|--0---0---0--0----|
|--0---0---0--0----| 2x
|--9---9---7--2----|
|--9---9---7--2----|
|--7---7---5--0----|

James (reverb)
|------------------|
|------------------|
|------------------| 2x
|--9---7---7--2----|
|--9---7---7--2----|
|--7---5---5--0----|

"Their hearts beat free..."


Billy
|--0---|
|--0---|
|--0---|
|--6---|
|--6---|
|--4---|

James (reverb)
|------|
|------|
|------|
|--6---|
|--6---|
|--4---|


Verse: 

Billy
|--0--0---0--0---|
|--0--0---0--0---|
|--0--0---0--0---| 3 times
|--4--2---6--4---|
|--4--2---6--4---|
|--2--0---4--2---|

James (reverb)
|----------------|
|----------------|
|----------------| 3 times
|--4--2---6--4---|
|--4--2---6--4---|
|--2--0---4--2---|

"Im gonna run away..."


Billy
|--0---0---|
|--0---0---|
|--0---0---|
|--7---7---|
|--7---7---|
|--5---5---|

James (reverb)
|----------|
|----------|
|----------|
|--7---7---|
|--7---7---|
|--5---5---|


Chorus: 

Billy
|--0---0---0--0----|
|--0---0---0--0----|
|--0---0---0--0----| 2x
|--9---9---7--2----|
|--9---9---7--2----|
|--7---7---5--0----|

James (reverb)
|------------------|
|------------------|
|------------------| 2x
|--9---7---7--2----|
|--9---7---7--2----|
|--7---5---5--0----|

"A slow dawn..."


Billy
|--0-----0--0---|
|--0-----0--0---|
|--0-----0--0---|
|--6-----7--4---|
|--6-----7--4---|
|--4-----5--2---|

James (reverb)
|---------------|
|---------------|
|---------------|
|--6-----7--4---|
|--6-----7--4---|
|--4-----5--2---|


Billy
|--0--0---|
|--0--0---|
|--0--0---|
|--7--4---|
|--7--4---|
|--5--2---|

"but Im sure that I can get ... away"                                    


Solo:

James (distortion)
|----------------------------------------------------------12---|
|------------------------------------------12-14-14~-12-14------|
|--/11~~p9-9~--13r11b13r11p9-11h13p11b13~-----------------------|
|---------------------------------------------------------------|
|---------------------------------------------------------------|
|---------------------------------------------------------------|
 
James (distortion)
|--16r14p12h14-16r14p12h14p12h14gb15~r14~-///--12-----------------|
|-------------------------------------------------12b13r12--------|
|----------------------------------------------------------11p9---|
|-----------------------------------------------------------------|
|-----------------------------------------------------------------|
|-----------------------------------------------------------------|

James (distortion)
|---------------------------------------------------------------|
|--12b13r12-----------------------------------------------------|
|-----------11h13p11----------------------------------9~-9h11---|
|--------------------11h14--------------------------------------|
|---------------------------------------------------------------|
|---------------------------14b15r14-14/17b19\16-12~------------|

James (distortion)
|-----------------------------------------|
|-------------------------------9h10-12---|
|--9p8-9p8-9p8-------------9h11-----------|
|--------------9-------7h9----------------|
|-----------------9h11--------------------|
|-----------------------------------------|

James (distortion)
|--9-12p-9-11/12p11-----------------------|
|-------------------9~-9h12---------------|
|---------------------------9~-/8~-8------|
|------------------------------------9~---|
|-----------------------------------------|
|-----------------------------------------|
       
James (distortion)
|--------------------------------------------|
|--------------------------------------------|
|--------------------------------------------|
|--/11b13r11---------------------------------|
|------------14h16p12-12h14p12----11h12p11---|
|------------------------------12------------|

James (distorton)
|------------------------------------|
|----------------16b18-17b18-18b20---|
|------------------------------------|
|------------------------------------|
|------------------------------------|
|--7-9b10r9p7-9----------------------|

James (distortion)
|--19b21-19b21r19-19~-17-16------------------|
|---------------------------17-17b19r17-17---|
|--------------------------------------------|
|--------------------------------------------|
|--------------------------------------------|
|--------------------------------------------|

James (distortion)
|-----------21-21gb23-///---|
|--17-----------------------|
|-----16~-------------------|
|---------------------------|
|---------------------------|
|---------------------------|


Billy (during the solo, distortion/reverb)
|--0--0---0--0---0--0---0-----0--0---0--0---0--0---0----|
|--0--0---0--0---0--0---0-----0--0---0--0---0--0---0----|
|--0--0---0--0---0--0---0-----0--0---0--0---0--0---0----|
|--12-7---11-6---9--4---7-----7--11--6--9---2--7---14---|
|--12-7---11-6---9--4---7-----7--11--6--9---2--7---14---|
|--10-5---9--4---7--2---5-----5--9---4--7---0--5---12---|

Billy (distortion/reverb)
|--0--0---0--0---0--0---0-0---0--0---0----|
|--0--0---0--0---0--0---0--0---0--0---0----|
|--0--0---0--0---0--0---0--0---0--0---0----|
|--11-6---9--4---7--2---9--4---7--2---11---|
|--11-6---9--4---7--2---9--4---7--2---11---|
|--9--4---7--2---5--0---7--2---5--0---9----|

Billy (distortion/reverb)
|--0---0---|
|--0---0---|
|--0---0---|
|--6---9---|
|--6---9---|
|--4---7---|


Outro:

Intro 4 times

And now with distortion

Intro 3 times

|--0--0---|
|--0--0---|
|--0--0---|
|--4--2---|
|--4--2---|
|--2--0---|

"a slow dawn away..."


"Spaceboy, Ive missed you"





Comments


Popular Smashing Pumpkins tabs & chords
Bullet With Butterfly Wings 5 Bass Tabs
Soma Bass Tabs
Eye Drum Tabs
Bring The Light 1 Tabs
Fuck You (An Ode To No One) Tabs
Landslide 3 Tabs
Sweet Sweet 1 Tabs
The Imploding Voice Tabs
Through The Eyes Of Ruby Tabs
Winterlong Tabs


Song lyrics



↑ Back to top | Tablatures and chords are parodies/interpretations of the original songs. You may use it for private study, scholarship, research or language learning purposes only
© 2014 AZChords.com Contact us | Privacy policy | DMCA | Add/correct tabs | Request tabs | Top 50 tabs