» » »

Smashing Pumpkins, Sad Peter Pan Tabs (ver.1)

Artists:  A B C D E F G H I J K L M N O P Q R S T U V W X Y Z # 

Sad Peter Pan Tabs (ver.1)

Smashing Pumpkins Tabs
 Rating:
4/5 (4 votes)
Sad Peter Pan lessons Tabs too difficult? Try these video lessons and learn fast
1
                Tuning: E A D G B E
***CAPO ON 1st FRET


INTRO

Rhythm - E Asus x4

Lead - Multiple guitars arranged for one
       Variations of this are played throughout the song
|---------------------0--0------|
|-----4----4b5r4-0----0----0----|
|---------------------2------1--|
|---2-----------------2---------|
|-------------------0-----------|
|-0------0----------------------|

|--------------0----------------|
|---4----2p0---0----------------|
|--------------2----------------|
|--------------2----2-1b2r1--2--|
|--------------0--2-------------|
|-0----0------------------------|

|-------------------0-----------|
|---4b5r4-------0---0-----------|
|---------------2---2--2--------|
|---------------2---2--2----2-4-|
|---------------0---0--0--4-----|
|-0-----------------------------|

|------------------0------------|
|----4---4b5r4-0---0------------|
|-1----------------2------------|
|------------------2------------|
|------------------0------------|
|-0----0------------------------|


VERSE
E Asus E Asus
E Asus E Asus
F#m Bsus F#m
Bsus Asus C#m Bsus


CHORUS
E Asus E Asus
E Asus E Asus


BRIDGE
E Asus


VERSE 2 - Same


BRIDGE 2
E Asus E Asus


CHORUS 2
E Asus E Asus
E Asus E Asus
E Asus E Asus


VERSE 3
E Asus E Asus
E Asus E Asus
F#m Bsus F#m
Bsus Asus C#m Bsus


CHORUS/OUTRO
Bsus Asus C#m Bsus
Bsus Asus C#m Bsus
Bsus Asus C#m Bsus
Bsus Asus C#m Bsus
Bsus Asus C#m Bsus
Bsus Asus C#m Bsus
Bsus Asus C#m
E Asus E Asus

Fade out...


Chords:
 Asus Bsus C#m E F#m
|-0----2----4--0--2--|
|-0----2----5--0--2--|
|-2----4----6--1--2--|
|-2----4----6--2--4--|
|-0----2----4--2--4--|
|--------------0--2--|
            
Submit corrections

comments powered by Disqus
↑ Back to top | Smashing Pumpkins Tabs for Sad Peter Pan. Lyrics for acoustic guitar and electric guitar. 1 Tablatures and chords are parodies/interpretations of the original songs. You may use it for private study, scholarship, research or language learning purposes only