>
 >
Rotten Apples

Rotten Apples Guitar Tabs

Smashing Pumpkins - Rotten Apples chords, tabs, tablatures, lyrics

Guitar lessons | Add/correct | Request | Top 50 tabs Artists:  A B C D E F G H I J K L M N O P Q R S T U V W X Y Z 0-9

Rotten Apples Guitar Tabs – Smashing Pumpkins

CD, Sheet music, Poster

Do you like Rotten Apples? Share with your friends now
Bass TabsBass Tabs v2Bass Tabs v3Bass Tabs v4ChordsTabs
================================================================================
                       S M A S H I N G   P U M P K I N S

                                       -

                           R O T T E N   A P P L E S
================================================================================


                             THE AEROPLANE FLIES HIGH
                             [Tonight Tonight Single]
                            (c) Virgin Records (1996)


                               Tune Down a 1/2 Step
                                D# G# C#  F# A# D#

                                 Tempo = 100 BPM
                               Time Signature = 4/4



                          -----------------------------

                                 PADDY MCMULLAN

                                   Version 1.0
                               20th November 2010
                             -----------------------

                             Tablature Symbols Used:


 p         -  Pull-Off
 ( )       -  Ghost Note/Tied Note/Implied Note


                                   -----------
                                   Song Notes:
                                   -----------

  The first part is all you really need to play the entire song, assuming you
  don't want to match the CD track note-for-note.  All of the variations are
  tabbed in full if you do.  Time-stamps, bar numbers and lyrics should be
       enough to guide you through what is potentially a confusing tab.

  To make things somewhat easier on the eye I've tabbed both acoustic guitars
  together, in a multitrack fashion.  Each guitar is labelled to avoid
                                    ambiguity.

      The entire song is played fingerstyle.  Allow the notes to ring out
                               wherever possible.



================================================================================
Part 1:                                                   [ Time 00:00 - 00:30 ]
================================================================================


 [Guitar 1]                      1                               2
||--2--------2--------------2-----|-----------2--------------2----|
||-------0-------0------0-------0-|-------0-------0------0--------|
||-----0-------0------0-------0---|-----2---2---2------2---2---0--|
||--2------2-------2------2-------|--0--------------0-------------|
||--------------------------------|-------------------------------|
||--------------------------------|-------------------------------|
|                                                                 |
|[Guitar 2]                                                       |
||--2--------2--------------2---0-|-----------2--------------2----|
||-------0-------0------0-------0-|-------0-------0------0--------|
||-----0-------0------0-------0---|-----2---2---2------2---2---0--|
||--2------2-------2------2-------|--0--------------0-------------|
||--------------------------------|-------------------------------|
||--------------------------------|-------------------------------|



[Guitar 1]                      3                                 4
|--2--------2--------------2-----|-----------2--------------2------|
|-------0-------0------0-------0-|-------0-------0------0----------|
|-----0-------0------0-------0---|-----2---2---2------2---2---2p0--|
|--2------2-------2------2-------|--0--------------0---------------|
|--------------------------------|---------------------------------|
|--------------------------------|---------------------------------|
|                                                                  |
|[Guitar 2]                                                        |
|--2--------2--------------2-----|-----------2--------------2------|
|-------0-------0------0-------0-|-------0-------0------0----------|
|-----0-------0------0-------0---|-----2---2---2------2---2---0----|
|--2------2-------2------2-------|--0--------------0------------(2)|
|--------------------------------|---------------------------------|
|--------------------------------|---------------------------------|



[Guitar 1]                      5                               6
|--2--------2--------------2-----|-----------2--------------2----|
|-------0-------0------0-------0-|-------0-------0------0--------|
|-----0-------0------0-------0---|-----2---2---2------2---2---0--|
|--2------2-------2------2-------|--0--------------0-------------|
|--------------------------------|-------------------------------|
|--------------------------------|-------------------------------|
| "Dirty                    your    face                    with"|
|                                                                |
|[Guitar 2]                                                      |
|--2--------2--------------2-----|-----------2--------------2----|
|-------0-------0------0-------0-|-------0-------0------0--------|
|-----0-------0------0-------0---|-----2---2---2------2---2---0--|
|--2------2-------2------2-------|--0--------------0-------------|
|--------------------------------|-------------------------------|
|--------------------------------|-------------------------------|



[Guitar 1]                      7                              8
|--2--------2--------------2-----|-----------2---------------2--|
|-------0-------0------0-------0-|-------0-------0------0-------|
|-----0-------0------0-------0---|-----2---2---2------2---------|
|--2------2-------2------2-------|--0--------------0------0-----|
|--------------------------------|------------------------------|
|--------------------------------|------------------------------|
| "Longing                    and   grace    God    given"      |
|                                                               |
|[Guitar 2]                                                     |
|--2--------2--------------2-----|-----------2--------------2-----|
|-------0-------0------0-------0-|-------0-------0------0---------|
|-----0-------0------0-------0---|-----2---2---2------2-------2-0-|
|--2------2-------2------2-------|--0--------------0------0-------|
|--------------------------------|--------------------------------|
|--------------------------------|--------------------------------|



[Guitar 1]                      9                              10
|--2--------2--------------2-----|-----------2--------------2----|
|-------0-------0------0-------0-|-------0-------0------0--------|
|-----0-------0------0-------0---|-----2---2---2------2---2---0--|
|--2------2-------2------2-------|--0--------------0-------------|
|--------------------------------|-------------------------------|
|--------------------------------|-------------------------------|
| "Suffer                     her   heart                    and"|
|                                                                |
|[Guitar 2]                                                      |
|--2--------2--------------2-----|-----------2--------------2-----|
|-------0-------0------0-------0-|-------0-------0------0-------0-|
|-----0-------0------0-------0---|-----2---2---2------2---2---0---|
|--2------2-------2------2---0---|--0--------------0--------------|
|--------------------------------|--------------------------------|
|--------------------------------|--------------------------------|



[Guitar 1]                  11                             12
|-----------------------------|-----------------------------||
|-----------------------------|--3--------------------0-----||
|-------0------0------0----0--|-------0------0------0-------||
|-----0------0------0---------|-----0------0------0------0--||
|--------------------------2--|-----------------------------||
|--3------3------3------3-----|--3------3------3------3-----||
|  "Love  her    when   your     love   goes   unrequited..."|
|                                                            |
|[Guitar 2]                                         _________|
|-----------------------|-------------------------||
|-----------------------|--3------------3----3----||
|-----------------------|-------0-----------------||
|------------0----0-----|-------------------------||
|-------2------------2--|-----2------2------------||
|--3--------------------|--3------3---------------||



================================================================================
Part 2:                                                   [ Time 00:31 - 00:49 ]
================================================================================


 [Guitar 1]                   13                              14
||--2--------2-------------2----|-----------2--------------2----|
||-------0-------------0--------|-------0-------0------0--------|
||-----0-------0-----0-------2--|-----2---2---2------2---2---0--|
||--2------2------2------2------|--0--------------0-------------|
||------------------------------|-------------------------------|
||------------------------------|-------------------------------|
| "(...requited)                   where   the   cool   winds"  |
|                                                               |
|[Guitar 2]                                                      |
||--2--------2-------------2-----|-----------2--------------2----|
||-------0-------------0-------0-|-------0-------0------0--------|
||-----0-------0-----0-------0---|-----2---2---2------2---2---0--|
||--2------2------2------2-------|--0--------------0-------------|
||-------------------------------|-------------------------------|
||-------------------------------|-------------------------------|



 [Guitar 1]                   15                              16
|--2--------2--------------2----|-----------2--------------2----|
|-------0-------0------0--------|-------0-------0------0--------|
|-----0-------0------0-------0--|-----2---2---2------2-------0--|
|--2------2-------2------2------|--0--------------0------0------|
|-------------------------------|-------------------------------|
|-------------------------------|-------------------------------|
| "Blow                            I        must      surely"   |
|                                                               |
|[Guitar 2]                                                     |
|--2--------2--------------2----|-----------2--------------2----|
|-------0-------0------0--------|-------0-------0------0--------|
|-----0-------0------0-------0--|-----2---2---2------2-------0--|
|--2------2-------2------2------|--0--------------0------0------|
|-------------------------------|-------------------------------|
|-------------------------------|-------------------------------|



 [Guitar 1]                    17                             18
|--2--------2--------------2-----|-----------2---------------2--|
|-------0-------0------0-------0-|-------0-------0------0-------|
|-----0-------0------0-------0---|-----2---2---2------2---------|
|--2------2-------2------2-------|--0--------------0------0-----|
|--------------------------------|------------------------------|
|--------------------------------|------------------------------|
| "Go                         for    my   love   calls   me"    |
|                                                               |
|[Guitar 2]                                                  ___|
|--2--------2--------------2---2-|--------------2-----2-----|
|-------0-------0------0-------0-|-------0---------------0--|
|-----0-------0------0-------0---|-----2---2-------2--------|
|--2------2-------2------2-------|--0-----------0-----0-----|
|--------------------------------|--------------------------|
|--------------------------------|--------------------------|



 [Guitar 1]                  19                          20
|------------------------------|--------------------------||
|------------------------------|-----3-----3-----3-----0--||
|-------0------0------0------0-|-----0-----0-----0-----0--||
|-----0------0-------------0---|--------------------0-----||
|-------------------2----------|--2-----2-----------2-----||
|--3------3------3------3------|--3-----3-----3-----3-----||
| "low    to     drag    me       from the depths  of my" |
|                                                         |
|[Guitar 2]                                               |
|-----------------------------|--------------------------||
|-----------------------------|--------------3--------0--||
|---------0-------------------|--------------------0--0--||
|-----(0)------0-----0-----0--|-----------------0--------||
|-----------------------------|-----2-----2--------------||
|--3--------3-----3-----3-----|--3-----3-----------3-----||



================================================================================
Part 3:                                                   [ Time 00:49 - 01:14 ]
================================================================================


 [Guitar 1]                    21                              22
||--2--------2--------------2----|-----------2--------------2----|
||-------0-------0------0--------|-------0-------0------0--------|
||-----0-------0------0-------0--|-----2---2---2------2---2---0--|
||--2------2-------2------2------|--0--------------0-------------|
||-------------------------------|-------------------------------|
||-------------------------------|-------------------------------|
| "Soul                                            when will I"  |
|                                                                |
|[Guitar 2]                                                      |
||--2--------2--------------2---2-|-----------2-----------------|
||-------0-------0------0-------0-|-------0-------0-------0-----|
||-----0-------0------0-------0---|-----2---2---2------2--------|
||--2------2-------2------2-------|--0--------------0--------0--|
||--------------------------------|-----------------------------|
||--------------------------------|-----------------------------|



 [Guitar 1]                   23                              24
|--2--------2--------------2----|-----------2--------------2----|
|-------0-------0------0--------|-------0-------0------0--------|
|-----0-------0------0-------0--|-----2---2---2------2-------2--|
|--2------2-------2------2------|--0--------------0------0------|
|-------------------------------|-------------------------------|
|-------------------------------|-------------------------------|
| "See her                    again?               The other"   |
|                                                         |
|[Guitar 2]                                               |
|--2--------2--------------2----|-----------2---2-------------|
|-------0-------0------0--------|-------0-------0----0-----0--|
|-----0-------0------0-------0--|-----2---2---2---2-----2-----|
|--2------2-------2------2------|--0--------------0-----0-----|
|-------------------------------|-----------------------------|
|-------------------------------|-----------------------------|



 [Guitar 1]                   25                             26
|--2--------2--------------2-----|-----------2-----------------|
|-------0-------0------0-------0-|-------0-------0-------0-----|
|-----0-------0------0-------0---|-----2---2---2---2--2-----0--|
|--2------2-------2------2-------|--0--------------0-----------|
|--------------------------------|-----------------------------|
|--------------------------------|-----------------------------|
| "Side                        of   friends              the"  |
|                                                              |
|[Guitar 2]                                                    |
|--2--------2--------------2----|-----------2-----------------|
|-------0-------0------0--------|-------0-------0-------0-----|
|-----0-------0------0----------|-----2-------2------2--------|
|--2------2-------2------2---0--|--0------0-------0--------0--|
|-------------------------------|-----------------------------|
|-------------------------------|-----------------------------|



 [Guitar 1]                   27                           28
|--2--------2--------------2----|-----------2----------------|
|-------0-------0------0--------|-------0--------------0--0--|
|-----0-------0------0-------0--|-----2---2---2-----2-----0--|
|--2------2-------2------2------|--0-------------0-----------|
|-------------------------------|----------------------------|
|-------------------------------|----------------------------|
| "Darkened  claw             of   death                the" |
|                                                            |
|[Guitar 2]                                                  |
|--2--------2--------------2----|-----------2-----------2-----|
|-------0-------0------0--------|-------0-------0----------0--|
|-----0-------0------0----------|-----2-------2------2--------|
|--2------2-------2------2---0--|--0------0-------0-----------|
|-------------------------------|-----------------------------|
|-------------------------------|-----------------------------|



 [Guitar 1]                29                         30
|----------------------------|--------------------2----||
|----------------------3-----|--------------------3----||
|-------0------0-------------|-------------------------||
|-----0------0------0--------|-------------------------||
|-------------------------2--|--2-----2-----2----------||
|--3------3------3-----------|--3--3--3--3--3--3-------||
| "Empty         breath    desire"                      |
|                                                       |
|[Guitar 2]                                             |
|----------------------------|--------------------2-----||
|----------------------0-----|--3-----------3-----------||
|-------0------0----------0--|--------0--------------0--||
|-----0------0------0--------|-----0--------------------||
|----------------------------|--------------------------||
|--3------3------3-----------|--3--------3-----3--------||



================================================================================
Part 4:                                                   [ Time 01:14 - 01:34 ]
================================================================================


 [Guitar 1]                   31                               32
||--2--------2--------------2----|-----------2--------------2----|
||-------0-------0------0-----0--|-------0-------0------0--------|
||-----0-------0------0-------0--|-----2---2---2------2---2---0--|
||--2------2-------2------2------|--0--------------0-------------|
||-------------------------------|-------------------------------|
||-------------------------------|-------------------------------|
| "Dirty                    your    face                    with"|
|                                                                |
|[Guitar 2]                                                      |
||--2--------2-------------2----|-----------2--------------2----|
||-------0-------------0--------|-------0-------0------0--------|
||-----0-------0-----0-------0--|-----2---2---2------2---2---0--|
||--2------2------2------2------|--0--------------0-------------|
||------------------------------|-------------------------------|
||------------------------------|-------------------------------|



 [Guitar 1]                  32                              33
|--2--------2--------------2---|-----------2--------------2----|
|-------0-------0------0-------|-------0-------0------0--------|
|-----0-------0------0---------|-----2---2---2------2-------0--|
|--2------2-------2------2-0---|--0--------------0------0------|
|------------------------------|-------------------------------|
|------------------------------|-------------------------------|
| "Longing                    and   grace    God    given"     |
|                                                              |
|[Guitar 2]                                                  __|
|--2--------2--------------2----|------------2-----------2--|
|-------0-------0------0--------|-------0----0-----0--------|
|-----0-------0------0-------0--|-----2---------2-----0-----|
|--2------2-------2------2------|--0------0-----------4-----|
|-------------------------------|---------------------------|
|-------------------------------|---------------------------|



 [Guitar 1]                   34                              35
|--2--------2--------------2----|-----------2--------------2----|
|-------0-------0------0--------|-------0-------0------0------0-|
|-----0-------0------0-------0--|-----2---2---2------2----------|
|--2------2-------2------2------|--0--------------0------0------|
|-------------------------------|-------------------------------|
|-------------------------------|-------------------------------|
| "Suffer                     her   heart                  and" |
|                                                               |
|[Guitar 2]                                                     |
|--2--------2--------------2----|-----------2--------------2----|
|-------0-------0------0--------|-------0-------0------0--------|
|-----0-------0------0-------0--|-----2-------2------2-------0--|
|--2------2-------2------2------|--0------0-------0------0------|
|-------------------------------|-------------------------------|
|-------------------------------|-------------------------------|



 [Guitar 1]                 36                         37
|-----------------------------|-------------------------||
|-----------------------------|--------0----0-----0-----||
|-------0------0------0-------|-------------------------||
|-----0----------0--0------0--|--0-------------0-----0--||
|------------2----------2-----|-----2-------------------||
|--3------3------3------3-----|--3----------------------||
| "Love   her   when  your  love    goes   unrequited..."|
|                                                        |
|[Guitar 2]                                           ___|
|-----------2-------------|-------------------------||
|-----------3----------3--|----------3--------3-----||
|-----0-----0----------0--|-------------------------||
|-------------------------|-------------0--------0--||
|-------------------------|--2-------2--------------||
|--3-----3-----3----3-----|--3----3--------3--------||



================================================================================
Part 5:                                                    [ Time 01:34 - 1:54 ]
================================================================================


 [Guitar 1]                    38                             39
||--2--------2--------------2----|-----------2---------------2--|
||-------0-------0------0--------|-------0-------0------0-------|
||-----0-------0------0-------0--|-----2---2---2------2---2-----|
||--2------2-------2------2------|--0--------------0------------|
||-------------------------------|------------------------------|
||-------------------------------|------------------------------|
|                                 "Restless  in   my    speech" |
|                                                               |
|[Guitar 2]                                                    _|
||--2--------2--------------2----|-----------2-------------2--|
||-------0-------0------0--------|-------0--------------0-----|
||-----0-------0------0-------0--|-----2---2---2-----2--------|
||--2------2-------2------2------|--0-------------0-----------|
||-------------------------------|----------------------------|
||-------------------------------|----------------------------|



 [Guitar 1]                   40                              41
|--2--------2--------------2----|-----------2--------------2----|
|-------0-------0------0--------|-------0-------0------0--------|
|-----0-------0------0-------0--|-----2---2---2------2-------0--|
|--2------2-------2------2------|--0--------------0------0------|
|-------------------------------|-------------------------------|
|-------------------------------|-------------------------------|
|                            "And rootless   in     my   teach" |
|                                                               |
|[Guitar 2]                                                   __|
|--2--------2--------------2-----|-----------2----------2----|
|-------0-------0------0-------0-|-------0--------------0----|
|-----0-------0------0-------0---|-----2-------2-----2-------|
|--2------2-------2------2-------|--0------0------0----------|
|--------------------------------|---------------------------|
|--------------------------------|---------------------------|



 [Guitar 1]                  42                            43
|--2--------2--------------2---|-----------2-----------2-----|
|-------0-------0------0-------|-------0-------0----------0--|
|-----0-------0------0---------|-----2---2---2------2--------|
|--2------2-------2------2-----|--0--------------0-----------|
|------------------------------|-----------------------------|
|------------------------------|-----------------------------|
|                                "So   vacant     in     my" |
|                                                            |
|[Guitar 2]                                                  |
|--2--------2---------------2--|-----------2-----------2-----|
|-------0-------0------0-------|-------0-------0-------0-----|
|-----0-------0------0---------|-----2-------2------2-----2--|
|--2------2-------2------2-----|--0------0-------0-----------|
|------------------------------|-----------------------------|
|------------------------------|-----------------------------|



 [Guitar 1]                  44                           45
|------------------------------|------------------------2--||
|------------------------------|------------3-----3--------||
|-------0------0------0------0-|-------0-------0-----0-----||
|-----0------0------0------0---|-----0---------------------||
|------------------------------|---------2-----2-----------||
|--3------3------3------3------|--3------3-----3-----3-----||
| "Breach I      drive  the        dirt  of  her garden..." |
|                                                           |
|[Guitar 2]                                                 |
|------------------------------|---------------------------||
|--0-------------3-----------0-|-------0-------3-----------||
|-------0------0------0------0-|-------0-------------------||
|-----0------0------0------0---|-----0------0-----------0--||
|------------------------------|------------------2--------||
|--3------3------3------3------|--3------3-----------3-----||



================================================================================
Part 6:                                                   [ Time 01:54 - 02:19 ]
================================================================================


 [Guitar 1]                    46                            47
||--2--------2--------------2----|-----------2-----------2-----|
||-------0-------0------0--------|-------0-------0-------------|
||-----0-------0------0-------0--|-----2---2---2------2-----0--|
||--2------2-------2------2------|--0--------------0-----------|
||-------------------------------|-----------------------------|
||-------------------------------|-----------------------------|
|  "Sorrow                                       she'll never" |
|                                                              |
|[Guitar 2]                                                    |
||--2--------2--------------2----|-----------2-----------2-----|
||-------0-------0------0--------|-------0-------0-------0-----|
||-----0-------0------0-------0--|-----2---2---2------2-----0--|
||--2------2-------2------2------|--0--------------0-----------|
||-------------------------------|-----------------------------|
||-------------------------------|-----------------------------|



 [Guitar 1]                   48                            49
|--2--------2--------------2----|-----------2-----------2-----|
|-------0-------0------0--------|-------0-------0-------------|
|-----0-------0------0-------0--|-----2---2---2------2-----0--|
|--2------2-------2------2------|--0--------------0-----------|
|-------------------------------|-----------------------------|
|-------------------------------|-----------------------------|
| "Listen                    again                No   other" |
|                                                             |
|[Guitar 2]                                                   |
|--2--------2--------------2-----|-----------2-----------2-----|
|-------0-------0------0-------0-|-------0-------0-------0-----|
|-----0-------0------0-------0---|-----2---2---2---2--2-----0--|
|--2------2-------2------2-------|--0--------------0-----------|
|--------------------------------|-----------------------------|
|--------------------------------|-----------------------------|



 [Guitar 1]                   50                            51
|--2--------2--------------2----|-----------2--------2--------|
|-------0-------0------0--------|-------0-------0-------0-----|
|-----0-------0------0-------0--|-----2---2---2---------------|
|--2------2-------2------2------|--0--------------0--------0--|
|-------------------------------|-----------------------------|
|-------------------------------|-----------------------------|
|  "Lovers                   to    bend           just rotten"|
|                                                             |
|[Guitar 2]                                                   |
|--2--------2--------------------|-----------2-----------2-----|
|-------0-------0------0---0-----|-------0-------0-------0-----|
|-----0-------0------0-------0---|-----2-------2------2-----2--|
|--2------2-------2------2-----0-|--0------0-------0-----------|
|--------------------------------|-----------------------------|
|--------------------------------|-----------------------------|



 [Guitar 1]                   52                             53
|--2--------2--------------2----|-----------2---------------2--|
|-------0-------0------0--------|-------0-------0------0-------|
|-----0-------0------0-------0--|-----2---2---2----------2-----|
|--2------2-------2------2------|--0--------------0--0---------|
|-------------------------------|------------------------------|
|-------------------------------|------------------------------|
|  "Apples                   to    eat                    just"|
|                                                              |
|[Guitar 2]                                                  __|
|--2--------2------------------|-----------2----2----2------|
|-------0-------0------0-------|-------0--------0----0--0---|
|-----0-------0------0------0--|-----2-------2------------0-|
|--2------2-------2------2-----|--0------0------0----0------|
|------------------------------|----------------------------|
|------------------------------|----------------------------|



 [Guitar 1]                  54                          55
|------------------------------|--------------------2-----||
|------------------------------|--------------0--------0--||
|-------0------0------0------0-|-----0--------------------||
|-----0------0------0------0---|-----0-----0-----0--------||
|------------------------------|-----------2--------------||
|--3------3------3------3------|--3-----3-----------------||
|  "Yellowed     distant          scorn"                   |
|                                                          |
|[Guitar 2]                                              __|
|---------------------------|--------------------------||
|---------------0-----0-----|--------0-----0-----0-----||
|-------0-------0-----0-----|--------0-----0-----0-----||
|-----0------0--------------|-----0-----0-----0--------||
|---------------------------|-----------------------0--||
|--3------3--------3-----3--|--3-----------------------||



================================================================================
Part 7:                                                   [ Time 02:19 - 02:39 ]
================================================================================


 [Guitar 1]                    56                              57
||--2--------2--------------2----|-----------2--------------2----|
||-------0-------0------0--------|-------0-------0------0--------|
||-----0-------0------0-------0--|-----2---2---2------2---2---0--|
||--2------2-------2------2------|--0--------------0-------------|
||-------------------------------|-------------------------------|
||-------------------------------|-------------------------------|
| "Dirty                    your    face                   with" |
|                                                                |
|[Guitar 2]                                                     _|
||--2--------2-----------2-----|-----------2--------------2----|
||-------0-----------0---------|-------0-------0------0--------|
||-----0-------0-------0----0--|-----2---2---2------2---2---0--|
||--2------2------2------------|--0--------------0-------------|
||-----------------------------|-------------------------------|
||-----------------------------|-------------------------------|



 [Guitar 1]                   58                             59
|--2--------2--------------2----|-----------2---------------2--|
|-------0-------0------0---0----|-------0-------0------0----0--|
|-----0-------0------0-------0--|-----2---2---2------2---------|
|--2------2-------2------2------|--0--------------0------0-----|
|-------------------------------|------------------------------|
|-------------------------------|------------------------------|
| "Longing                    and   grace    God    given"     |
|                                                              |
|[Guitar 2]                                                    |
|--2--------2--------------2----|-----------2---------------2--|
|-------0-------0------0--------|-------0-------0------0-------|
|-----0-------0------0-------0--|-----2---2---2------2---2-----|
|--2------2-------2------2------|--0--------------0------------|
|-------------------------------|------------------------------|
|-------------------------------|------------------------------|



 [Guitar 1]                   60                                61
|--2--------2--------------2----|-----------2----------------2----|
|-------0-------0------0--------|-------0-------0-------0---------|
|-----0-------0------0-------0--|-----2---2---2------2---------0--|
|--2------2-------2------2------|--0--------------0-------0-------|
|-------------------------------|---------------------------------|
|-------------------------------|---------------------------------|
| "Suffer                     her   heart                    and" |
|                                                                 |
|[Guitar 2]                                                    ___|
|--2--------2------------2-----|-----------2-------------2----|
|-------0-------0----0---------|-------0-------------0--------|
|-----0-------0--------0----0--|-----2-------2-----2-------0--|
|--2------2-------2------------|--0------0------0------0------|
|------------------------------|------------------------------|
|------------------------------|------------------------------|



 [Guitar 1]                  62                            63
|------------------------------|----------------------------||
|----------------------------0-|----------------0-----0-----||
|-------0------0------0----0-0-|-------0------0----0-----0--||
|-----0-------------0----------|-----0------0---------------||
|------------2-----------------|----------------------------||
|--3------3------3------3------|--3------3------------------||
|  "Love  her    when   your     love   goes   unrequited..."|
|                                                            |
|[Guitar 2]                                            ______|
|-------------------------|--------------------------||
|-----------------3-------|-------0---------------3--||
|------0----------0-------|-------0---------------0--||
|--------0-------------0--|-----0------0-----0-------||
|-------------------------|--------------------------||
|--3-----3----3-----3-----|--3------3-----3----------||



================================================================================
Part 8:                                                   [ Time 02:39 - 03:03 ]
================================================================================


 [Guitar 1]                    64                             65
||--2--------2--------------2----|-----------2---------------2--|
||-------0-------0------0--------|-------0-------0------0-------|
||-----0-------0------0-------0--|-----2---2---2------2---2-----|
||--2------2-------2------2------|--0--------------0------------|
||-------------------------------|------------------------------|
||-------------------------------|------------------------------|
|                                 "Life   just   fades away..." |
|                                                               |
|[Guitar 2]                                                   __|
||--2--------2-----------2-----|-----------2------------2----|
||-------0-----------0---------|-------0---------------------|
||-----0-------0-------0-------|-----2---2---2-----2------0--|
||--2------2------2---------0--|--0-------------0-----0------|
||-----------------------------|-----------------------------|
||-----------------------------|-----------------------------|



 [Guitar 1]                   66                             67
|--2--------2--------------2----|-----------2-----------2-----|
|-------0-------0------0--------|-------0-------0-------------|
|-----0-------0------0-------0--|-----2---2---2------2-----0--|
|--2------2-------2------2------|--0--------------0-----------|
|-------------------------------|-----------------------------|
|-------------------------------|-----------------------------|
|                                 "Purity     just   begs..." |
|                                                             |
|[Guitar 2]                                                   |
|--2--------2--------------2----|-----------2--------------2--|
|-------0-------0------0--------|-------0-------0----------0--|
|-----0-------0------0-------0--|-----2-------2------2--------|
|--2------2-------2------2------|--0------0-------0-----0-----|
|-------------------------------|-----------------------------|
|-------------------------------|-----------------------------|



 [Guitar 1]                   67                         68
|--2--------2--------------2----|-----------2--------2-----|
|-------0-------0------0--------|--------------0--------0--|
|-----0-------0------0-------0--|-----2--------------------|
|--2------2-------2------2------|--0-----0--------0-----0--|
|-------------------------------|--------------------------|
|-------------------------------|--------------------------|
|                                  "Dust  to  dust  we're" |
|                                                          |
|[Guitar 2]                                                |
|--2--------2-------------2----|-----------2----------------|
|-------0-------------0--------|-------0--------0-----0-----|
|-----0-------0-----0-------0--|-----2-------2--------2-----|
|--2------2------2------2------|--0------0---------0-----0--|
|------------------------------|----------------------------|
|------------------------------|----------------------------|



 [Guitar 1]          69                   70
|----------------------|--0----------------||
|----------0-----------|--0----------------||
|----------0-----------|--0----------------||
|-------------0--------|--0----------------||
|-------2--------------|--2----------------||
|--3----3-----3--------|--3----------------||
| "Wired    into      sadness"              |
|                                           |
|[Guitar 2]                                 |
|-----------------------|-------------------||
|----------0------------|--0----------------||
|----------0------------|--0----------------||
|-------0-----0---------|--0----------------||
|-----------------------|--2----------------||
|--3---------------3----|--3----------------||




Allow the final chord to ring out.




================================================================================
End
================================================================================


Tab summary:        Part 1 x 1
                    Part 2 x 1
                    Part 3 x 1
                    Part 4 x 1
                    Part 5 x 1
                    Part 6 x 1
                    Part 7 x 1
                    Part 8 x 1

                    END





Comments


Popular Smashing Pumpkins tabs & chords
Fol Bass Tabs
Hummer Bass Tabs
I Am One Bass Tabs
Jakie Blue Bass Tabs
Ava Adore 1 Chords
Daydream 2 Tabs
God Tabs
Siamese Dream Tabs
Slow Dawn Down Tabs
Raindrops And Sunshowers Ukulele


Song lyrics



↑ Back to top | Tablatures and chords are parodies/interpretations of the original songs. You may use it for private study, scholarship, research or language learning purposes only
© 2014 AZChords.com Contact us | Privacy policy | DMCA | Add/correct tabs | Request tabs | Top 50 tabs