» » »

Smashing Pumpkins, Pinwheels Tabs (ver.1)

Artists:  A B C D E F G H I J K L M N O P Q R S T U V W X Y Z # 

Pinwheels Tabs (ver.1)

Smashing Pumpkins Tabs
Rating:
0/5 (0 votes)
Pinwheels lessons Tabs too difficult? Try these video lessons and learn fast
                (Intro)
Beginning Keyboard Part:
------------------------------------------15------|
-----------8------------------15----15------------|
---7---7-----------OR------12----12----12---------|
-5---5---5----------------------------------------|
--------------------------------------------------|
--------------------------------------------------|

First guitar riffs:
------------------------   --------------------------------|
------------------------   --------------------------------|
--4------5--4---2-4-----   --2------4---2---0-2------------|
------------------------x2 -----------------------0--------|
------------------------   --------------------------------|
------------------------   -----------------------------3--|

Chords:
-------------0---------0----------|
--0----------1---------1----------|
--0----------0---------0----------|
--0----------2---------2----------|
--2----------3---------3----------|
--3--------------------3----------|

Just alternate through those a bunch. It should be easy to figure out. I'm not quite 
sure about these chords, but they're close enough.

Main riff:
-------------------------------------------|---------------------------------|
-------------------------------------------|---------------------------------|
---2-4---2-4---2-4---2----7------7---0---2-|--0-2---0-2---0--2---0----4--4-0-|
-------------------------------------------|---------------------------------|
-------------------------------------------|---------------------------------|
-------------------------------------------|---------------------------------|


Can't figure out what the keyboard's doing during that main riff. But yeah, that's as 
much as I could get.
            
Submit corrections

comments powered by Disqus
↑ Back to top | Smashing Pumpkins Tabs for Pinwheels. Lyrics for acoustic guitar and electric guitar. Tablatures and chords are parodies/interpretations of the original songs. You may use it for private study, scholarship, research or language learning purposes only