» » »

Luna Bass tabs (ver.1)

Artists:  A B C D E F G H I J K L M N O P Q R S T U V W X Y Z # 

Luna Bass tabs (ver.1)

Smashing Pumpkins
Rating:
0/5 (0 votes)

Hard to play? Try these video lessons and learn fast.
                   
     (let ring!)        x3
A|*--5--7--5--7--5--7--0--*|--0-0-0-0--|------------|------------|--5--5-5-5--|
E|*-----------------------*|-----------|--3--3-3-3--|--2--2-2-2--|------------|


A|--0--0-0-0--|------------|-------------------|--2--2-2-2--|------------|
E|------------|--3--3-3-3--|--2-2-2-2-2-2-2-2--|------------|--3--3-3-3--|


A|--0-0-0-0-0-0-0-0--|--2--2-2-2--|------------|----0----|--rest--|
E|-------------------|------------|--3--3-3-3--|---------|--------|

                       x3                                          x3
A|*--5--5-5--7-7-7-7-7--*|--0-0-0-0-0-0-0-0--|*--5--5-5--7-7-7-7-7--*|
E|*---------------------*|-------------------|*---------------------*|
--

A|--0--0-0-0--|------------|------------|--5--5-5-5--|--0--0-0-0--|-----------|
E|------------|--3--3-3-3--|--2--2-2-2--|------------|------------|--3--3-3-3-|


A|------------|--2--2-2-2--|------------|--0--0-0-0--0--0-0-0--|--2--2-2-2--|
E|--2--2-2-2--|------------|--3--3-3-3--|----------------------|------------|

                                                       play 3 times
A|------------|----5----|--0-0---0-0---0-0---0-0--|*--5--5-5--7-7-7-7-7--|
E|--3--3-3-3--|---------|-------------------------|*---------------------|

                        1st, 2nd time     3rd time (fade out)
A|---o/o---|---o/o---|--0--0-0-0-0--*|--0--0-0-0--0--0-0-0--0--0-0-0--|
E|---------|---------|--------------*|--------------------------------|

The "o/o" things are supposed to be repeat signs--play that first measure 3
times in a row.  I'm sure you know that anyway.

Just for the record, my name is David Virginia, e-mail address is
            
Hard to play? Try these video lessons and learn fast. | Correct




comments powered by Disqus
↑ Back to top | Tablatures and chords are parodies/interpretations of the original songs. You may use it for private study, scholarship, research or language learning purposes only