» » »

Ledeuxmachina Tabs (ver.1)

Artists:  A B C D E F G H I J K L M N O P Q R S T U V W X Y Z # 

Ledeuxmachina Tabs (ver.1)

Smashing Pumpkins
Rating:
0/5 (0 votes)

Hard to play? Try these video lessons and learn fast.
                artist- Smashing Pumpkins	
album – CD4
song  - LeDeuxMachina


standard tuning

this is actually played on piano,
but with some practise you can play both parties
at the same time. Pay very much attention the your finger placing,
how you choose to use them results in how smooth it all sounds.


E--------------------------------------------------2-4-2-4-2-4-2-4--
B--2-4-2-4-2-4-2-4-4-6-4-6-4-6-4-6-5-7-5-7-5-7-5-7------------------
G-------------------------------------------------------------------
D----------3--------------------------------------------------------
A--1-----------------------6---------------5---------------2--------
E------------------4---------------3---------------0----------------


--2-4-2-4-2-4-2-4-4-6-4-6-4-6-4-6-5-7-5-7-5-7-5-7-7-9-7-9-7-9-7-9--
----------3-------------------------------6-------7----------------
--1-----------------------6-------4-----------------------7--------
------------------4------------------------------------------------


--4-6-4-6-4-6-4-6-7-9-7-9-7-9-7-9-5-7-5-7-5-7-5-7-4-5-4-5-4-5-4-5--
--6-----------------------5-------4---------------4----------------
----------6-------7-----------------------5---------------4--------


--2-4-2-4-2-4-2-4-0-2-0-2-0-2-0-2----------------------------------|
----------------------------------4-5-4-5-4-5-4-5-4-5-4-5-4-5-4-5--|
--------------------------1-------2--------------------------------|
----------1-------------------------------2------------------------|
------------------4-------------------------------4----------------|
--4----------------------------------------------------------------|


and start over again…
            
Hard to play? Try these video lessons and learn fast. | Correct




comments powered by Disqus
↑ Back to top | Tablatures and chords are parodies/interpretations of the original songs. You may use it for private study, scholarship, research or language learning purposes only