>
 >
Joker

Joker Guitar Tabs

Smashing Pumpkins - Joker chords, tabs, tablatures, lyrics

Guitar lessons | Add/correct | Request | Top 50 tabs Artists:  A B C D E F G H I J K L M N O P Q R S T U V W X Y Z 0-9

Joker Guitar Tabs – Smashing Pumpkins

CD, Sheet music, Poster

Do you like Joker? Share with your friends now
Tabs
tuning:DbAbDbGbBbeb
this is a cover of the steve miller song


that the pumpkins did in early 1996 its pretty much the same as the steve miller virson 
there a solo at the end im not really shure how it gose it dont sound to pland out 
so make it up thats wat i do

the intro is pretty much bass and drums  i cant hear a guitar if there playing

then then theres the thingy that dose the weird thingy on the string it gose
e|-8/21---------8/16---------------------------------------------|

Chorus
|---------------------------------|-------------------------------|
|--------0--------------1---------|------0--------------1---------|
|*-------0-----0----0---0-----0-0-|------0-------0----0-----------|
|*-------0----------------0h2-----|------0-----0------2-----------|
|----------0h2----3---3-----------|--------0h2-----3------2-2-0-0-|
|---3--3--------------------------|--3----------------------------|


                                                            3x
|-----------------------------|------------------------------||
|-----------------------------|--3--3--3-3--3-1--1-----------||
|------0---0---0-0---0-----0--|--2--2--2-2--2-0--0------0-0-*||
|--------0---0---2-----0h2----|--0--0--0-0--0-2--2--0h2-----*||
|----------------3------------|---------------3--3-----------||
|--3--------------------------|------------------------------||

|------------------------0-0-||---------------------------|
|--3--3--3-3--3-1--1--1--1-1-||---------------------------|
|--2--2--2-2--2-0--0--0------||*--------------------------|
|--0--0--0-0--0-2--2---------||*----------------------0h2-|
|---------------3--3---------||-----------0h2-3--3--------|
|----------------------------||---3--3--------------------|

Guitar Solo 1

  Gtr I
|---------------------------------|-----------------------------------|
|---------------------------------|-----------------------------------|
|---------------------------------|-----------------------------------|
|-----------------------------0h2-|---0--0----------------------------|
|----------------0-2---3--3-------|----------0-2--3--3-3--3--2-2------|
|--3-------3-(3)------------------|-------------------------------0-2-|

| Gtr II,
|-13s=15-------------(15)---------|-(15)---------15s13----------------|
|---------------------------------|----------------------15s13--------|
|---------------------------------|------------------------------15---|
|---------------------------------|------------------------------15---|
|---------------------------------|-----------------------------------|
|---------------------------------|-----------------------------------|

|---------------------------------------------|
|---------------------------------------------|
|---------------------------------------------|
|-----------------------------------------0h2-|
|------------------------0-2---3--3-----------|
|-----3--3------------------------------------|

|----------------------------(15)---(15)\-----|
|--------------------15------(15)---(15)\-----|
|-15s13-----/15-(15)--------------------------|
|-------15/-----------------------------------|
|---------------------------------------------|
|---------------------------------------------|

                     PM------------|

|-------------------------------------------------|
|-------------------------------------------------|
|--------------------------------------------0--0-|
|--0-----0-----------------------------0h=2-------|
|--------------------0--2--3--3--3--3-------------|
|-------------------------------------------------|
|
|
|-------------------------------------------------|
|-------------------------------------------------|
|-------------------------------------------------|
|-15s13----15s13----15s13----15s13----15-15-15-15-|
|-------15-------15-------15-------15-------------|
|-------------------------------------------------|


|----------------------------------------|
|----------------------------------------|
|----------------------------------------|
|-----------------------------------0h=2-|
|--------------0-2---3---3---------------|
|---3---3--------------------------------|
|
|
|---------(15)-----(15)-15s13s15---------|
|------15------------------------15------|
|-(15)--------------------------------14s|
|----------------------------------------|
|----------------------------------------|
|----------------------------------------|


               PM------------|

|-------------------------------------------||
|-------------------------------------------||
|--------------------------------------0--0-||
|--0--0--------------------------0h=2-------||
|--------------0--2--3--3--3--3-------------||
|-------------------------------------------||
|
|
|-------------------------------------------||
|-------------------------------------------||
|-13----------------------------------------||
|----15-15s13----15s13----15s13----15s13----||
|-------------15-------15-------15-------15-||
|-------------------------------------------||

   Vrse 3
|-----------------------------|----------------------------|
|-----------------------------|----------------------------|
|-----------------------------|----------------------------|
|0--0------------------------|----------------------0-2----|
|---------0-2-3-3-3-3-2-2-0---|----------0-2-3--3----------|
|---------------------------2h|--3--3----------------------|


                               3x
|------------------------------||-----------------------------------|
|-----------------------------||--------0--------------1------------|
|-------------------------0-0-*||*-------0-----0----0---0-----0-0---|
|-0--0----------------0h2-----*||*-------0----------------0h2-------|
|--------0-2-3-3-3-3----------||----------0h2----3---3--------------|
|------------------------------||---3--3----------------------------|

|------------------------------|-----------------------------|
|-----0--------------1---------|-----------------------------|
|-----0-------0----0-----------|-----0---0---0--0---0-----0--|
|-----0----0------2------------|--------0---0---2-----0h2----|
|------0h2-----3------2-2-0-0--|----------------3------------|
|-3----------------------------|--3--------------------------|


                              5x
|-----------------------------||------------------------0-0-|
|-3--3--3-3--3-1--1-----------||--3--3--3-3--3-1--1--1--1-1-|
|-2--2--2-2--2-0--0------0-0-*||--2--2--2-2--2-0--0--0------|
|-0--0--0-0--0-2--2--0h2-----*||--0--0--0-0--0-2--2---------|
|--------------3--3-----------||---------------3--3---------|
|-----------------------------||----------------------------|

|---------------------------|------------------------------|
|---------------------------|------------------------------|
|*--------------------------|------------------------------|
|*----------------------0h2-|--0--0------------------------|
|-----------0h2-3--3--------|----------0-2-3-3-3-3-2-2-0---|
|---3--3--------------------|----------------------------2h|


                                                          3x
|--------------------------|-------------------------------||
|--------------------------|-------------------------------||
|--------------------------|--------------------------0-0-*||
|----------------------0-2-|--0--0----------------0h2-----*||
|----------0-2-3--3--------|----------0-2-3-3-3-3----------||
|--3--3--------------------|-------------------------------||





Comments


Popular Smashing Pumpkins tabs & chords
Bodies 4 Bass Tabs
Bullet With Butterfly Wings 7 Bass Tabs
Bullet Wth Butterfly Wings Bass Tabs
Pug Bass Tabs
There It Goes Chords
Luna Drum Tabs
Annie - Dog Tabs
Through The Eyes Of Ruby 1 Tabs
You're All I've Got Tonight Tabs
Obscured Ukulele


Song lyrics



↑ Back to top | Tablatures and chords are parodies/interpretations of the original songs. You may use it for private study, scholarship, research or language learning purposes only
© 2014 AZChords.com Contact us | Privacy policy | DMCA | Add/correct tabs | Request tabs | Top 50 tabs