» » »

Depresso Tabs (ver.1)

Artists:  A B C D E F G H I J K L M N O P Q R S T U V W X Y Z # 

Depresso Tabs (ver.1)

Smashing Pumpkins
Rating:
0/5 (0 votes)

Hard to play? Try these video lessons and learn fast.
                *Riff 1
------------------------------------------------------------
2-2-2-2-2-2-2-6--6-6-6-6-6-6-6--2-2-2-2-2-2-2-6--6-6-4--4-4-
x-x-x-x-x-x-x-x--x-x-x-x-x-x-x--x-x-x-x-x-x-x-x--x-x-x--x-x-
4-4-4-4-4-4-4-8--8-8-8-8-8-8-8--4-4-4-4-4-4-4-8--8-8-6--6-6-
------------------------------------------------------------
------------------------------------------------------------

into this:
------------------------------------------------------------
9-9-9-9-9-9-9-7--6--4--2-2-2--------------------------------
x-x-x-x-x-x-x-x--x--x--x-x-x--------------------------------
111111111111119--8--6--4-4-4--------------------------------
------------------------------------------------------------
------------------------------------------------------------

Repeat Riff 1 
That's all it is.
Enjoi!
            
Hard to play? Try these video lessons and learn fast. | Correct




comments powered by Disqus
↑ Back to top | Tablatures and chords are parodies/interpretations of the original songs. You may use it for private study, scholarship, research or language learning purposes only