» » »

By Starlight Bass tabs (ver.1)

Artists:  A B C D E F G H I J K L M N O P Q R S T U V W X Y Z # 

By Starlight Bass tabs (ver.1)

Smashing Pumpkins
Rating:
0/5 (0 votes)

Hard to play? Try these video lessons and learn fast.
                -------------------------------------------------------------------------------
			 By Starlight - Smashing Pumpkins
-------------------------------------------------------------------------------


 Tuning:Drop D
 Intro (0.26)
G|-------------------------|
D|-------------------------|
A|-------------------5-----|
D|10~-10~-10~-10~--5~--3~--|

 Verse "By starlight I'll kiss you"
G|--------------------------------------------------------------------------------|
D|--------------------------------------------------------------------------------|
A|-----------5-------------------------5------------------------------------------|
D|10~-10~--5~--3~---10~-10~-10~-10~--5~--3~---10~-10~-10~-10~-5~--7p5~-3~--0~/5~--|

 Chorus
G|------------------------------------------------------------------------|
D|------------------------------------------------------------------------|
A|-------------------------------5----------------------------------------|
D|10~-10~-5~--7p5~-3~--10~-10~-5~--3~---7~-5~-0~-5~--10~-10~-5~--7p5~-3~--|

 Post-Chorus
G|-------------------------|
D|-------------------------|
A|-------------------------|
D|0~--5~--10~--3~--0~--5~--|

 Verse "By Starlight I know you"
G|---------------------------------------------------|
D|---------------------------------------------------|
A|---------------------5-----------------------5-----|
D|10~-5~-3~--10~-10~-5~--3~--10~-10~-10~-10~-5~--3~--|

 Pre-Chorus
G|-------------------------|
D|-------------------------|
A|-------------------------|
D|0~--5~--10~--3~--0~--5~--|

 Chorus
G|------------------------------------------------------------------------|
D|------------------------------------------------------------------------|
A|-------------------------------5----------------------------------------|
D|10~-10~-5~--7p5~-3~--10~-10~-5~--3~---7~-5~-0~-5~--10~-10~-5~--7p5~-3~--|

 Bridge
G|----------------------------------------------------------------|
D|---------99------------------------------99---------------------|
A|------------------------------5-7-10----------5------------|
D|10~--10~----5~--7p5~--3~--10~---------10~---5~--3------------|

G|------------------------------------------------------------|
D|-----------------------------------------------99-----------|
A|----5-7-10------5-7-10--------------5-7-10-----------5------|
D|10~---------10~---------5~--3~--10~---------10~----5~---3~--|

G|----------------------------------------------------------------|
D|---------------99-----------------------------------------------|
A|----5-7-10----------5---------5-7-10------5-7-10----------------|
D|10~---------10~---5~--3~--10~---------10~---------5~--7p5~--3~--|
 (Fades out)
G|-------------------------------|
D|--------------99---------------|
A|----5-7-10---------------------|
D|10~--------10~---5~--7p5~--3~--|

| /  slide up
| \  slide down
| h  hammer-on
| p  pull-off
| ~  vibrato
| +  harmonic
| x  Mute note
===============================================================================
            
Hard to play? Try these video lessons and learn fast. | Correct




comments powered by Disqus
↑ Back to top | Tablatures and chords are parodies/interpretations of the original songs. You may use it for private study, scholarship, research or language learning purposes only