>
 >
Autumn

Autumn Guitar Tabs

Smashing Pumpkins - Autumn chords, tabs, tablatures, lyrics

Guitar lessons | Add/correct | Request | Top 50 tabs Artists:  A B C D E F G H I J K L M N O P Q R S T U V W X Y Z 0-9

Autumn Guitar Tabs – Smashing Pumpkins

CD, Sheet music, Poster

Do you like Autumn? Share with your friends now
Tabs
************************* P L E A S E  N O T E *************************

       You may only use this tab for private study, research, etc.
        Do not change, deface, mutilate, steal or alter this tab.

 ************************* P L E A S E  N O T E *************************


--Title: Autumn
--Artist: The Smashing Pumpkins
--Release: Machina Acoustic Demos
--Last updated: 10/72010


--Tuning: CFBbDGC (Standard tuning down two whole steps)


--PART 1

|-------------0----------------------------------------------|
|--/3-----3---------------------------3----------------------|
|-------0-----------------0-------0---------------0-0-----0--|
|--/4-------4-----------0-------2---------------0-------0----|
|---------------0---2-------3-------3---3/5------------------|
|-------------------------------------------3-------0--------|

|-------------0----------------------------------------------|
|---------3---------------------------3----------------------|
|-------0-----------------0-------0---------------0-------0--|
|--/4-------4-----------0-------2---------------0-------0----|
|---------------0---2-------3-------3---3/5------------------|
|-------------------------------------------3-------0--------|

|-------------0----------------------------------------------|
|---------3---------------------------3----------------------|
|-------0-----------------0-------0---------------0-0-----0--|
|--/4-------4-----------0-------2---------------0-------0----|
|---------------0---2-------3-------3---3/5------------------|
|-------------------------------------------3-------0--------|

|-------------0--------------------------------------------|
|---------3---------------------------3--------------------|
|-------0-----------------0-------0---------------0-0------|
|--/4-------4-----------0-------2---------------0-------0--|
|---------------0---2-------3-------3---3/5----------------|
|-------------------------------------------3-------0------|

--PART 2

|--------------------------*0----|
|------------1-------------------|
|--2-----2--------------2--------|
|------0--------------0----------|
|-----------------1-------1---0--|
|--1-------1---3-----------------|

|--------------------------*0----|
|------------1-------------------|
|--------2--------------2--------|
|------0--------------0----------|
|-----------------1-------1---0--|
|--1-------1---3-----------------|

|--------------------------------|
|------------1-------------------|
|--------2--------------2--------|
|------0--------------0----------|
|-----------------1-------1---0--|
|--1-------1---3-----------------|

|--------------------------------|
|------------1--------------1----|
|--------2--------------2--------|
|------0--------------0-------0--|
|--1-------0---------------------|
|--------------1--3---3---3---3--|

--PART 3

|-----------------------------0----|
|-------------------------------0--|
|---------9---------------9--------|
|-------9-----9---------9----------|
|--/7-------7---6------------------|
|---0---------------7-------7------|

|----------------------------0----|
|------------------------------0--|
|--------9---------------9--------|
|------9-----9---------9----------|
|----------7---6------------------|
|--0---------------7-------7------|

|---------------------------------|
|----------------------------0----|
|--------9---------------9--------|
|------9-----9---------9----------|
|----------7---6------------------|
|--0---------------7-------7------|

|-------------5---------------0----|
|---------------0---------------0--|
|---------0---------2-----2--------|
|-------4---------------0-------0--|
|--/5-------5----------------------|
|---------------0---2-------2--p0--|

|-----------------------------0----|
|-------------------------------0--|
|---------9---------------9--------|
|-------9-----9---------9----------|
|--/7-------7---6------------------|
|---0---------------7-------7------|

|---------------------------------|
|----------------------------0----|
|--------9---------------9--------|
|------9-----9---------9----------|
|----------7---6------------------|
|--0---------------7-------7------|

|-------------5---------------0----|
|---------------0---------------0--|
|---------0---------2-----2--------|
|-------4---------------0-------0--|
|--/5-------5----------------------|
|---------------0---2-------2--p0--|

|----------------------------------|
|-----------------------------0----|
|---------9---------------9--------|
|-------9-----9---------9----------|
|--/7-------7---6------------------|
|---0---------------7-------7---0--|

--PART 1 (again)

|-------------0----------------------------------------------|
|--/3-----3---------------------------3----------------------|
|-------0-----------------0-------0---------------0-------0--|
|--/4-------4-----------0-------2---------------0-------0----|
|---------------0---2-------3-------3---3/5------------------|
|-------------------------------------------3-------0--------|

|-------------0----------------------------------------------|
|---------3---------------------------3----------------------|
|-------0-----------------0-------0---------------0-------0--|
|--/4-------4-----------0-------2---------------0-------0----|
|---------------0---2-------3-------3---3/5------------------|
|-------------------------------------------3-------0--------|

|-------------0--------------------------------------------|
|---------3---------------------------3--------------------|
|-------0-----------------0-------0---------------0-0------|
|--/4-------4-----------0-------2---------------0-------0--|
|---------------0---2-------3-------3---3/5----------------|
|-------------------------------------------3-------0------|

--PART 2 (again)

|--------------------------------|
|------------1--------------1----|
|--2-----2--------------2--------|
|------0--------------0----------|
|-----------------1-------1---0--|
|--1-------1---3-----------------|

|--------------------------------|
|------------1--------------1----|
|--------2--------------2--------|
|------0--------------0----------|
|-----------------1-------1------|
|--1-------1---3--------------0--|

|--------------------------------|
|------------1--------------1----|
|--------2--------------2--------|
|------0--------------0----------|
|-----------------1-------1---0--|
|--1-------1---3-----------------|

|--------------------------------|
|------------1--------------1----|
|--------2--------------2--------|
|------0--------------0----------|
|--1-------0---------------------|
|--------------1--3---3---3--/5--|

--PART 3 (again)

|-----------------------------0----|
|-------------------------------0--|
|---------9---------------9--------|
|-------9-----9---------9----------|
|--/7-------7---6------------------|
|---0---------------7-------7------|

|-------------------------------|
|----------------------------0--|
|--------9---------------9------|
|------9-----9---------9--------|
|----------7---6----------------|
|--0---------------7-------7----|

|----------------------------0--|
|-------------------------------|
|--------9---------------9------|
|------9-----9---------9--------|
|----------7---6----------------|
|--0---------------7-------7----|

|-------------5---------------0----|
|---------------0---------------0--|
|---------0---------2-----2--------|
|--/4---4---------------0-------0--|
|--/5-------5----------------------|
|---------------0---2-------2--p0--|

|-----------------------------0----|
|-------------------------------0--|
|---------9---------------9--------|
|-------9-----9---------9----------|
|--/7-------7---6------------------|
|---0---------------7-------7------|

|----------------------------0----|
|------------------------------0--|
|--------9---------------9--------|
|------9-----9---------9----------|
|----------7---6------------------|
|--0---------------7-------7------|

|-------------5---------------0----|
|---------------0---------------0--|
|---------0---------2-----2--------|
|-------4---------------0-------0--|
|--/5-------5----------------------|
|---------------0---2-------2--p0--|

|----------------------------------|
|-----------------------------0----|
|---------9---------------9--------|
|-------9-----9---------9----------|
|--/7-------7---6------------------|
|---0---------------7-------7---0--|

--PART 1 (last time)

|-------------0----------------------------------------------|
|--/3-----3---------------------------3----------------------|
|-------0-----------------0-------0---------------0-------0--|
|--/4-------4-----------0-------2---------------0-------0----|
|---------------0---2-------3-------3---3/5------------------|
|-------------------------------------------3-------0--------|

|-------------0--------------------------------------------|
|---------3---------------------------3--------------------|
|-------0-----------------0-------0---------------0-0------|
|--/4-------4-----------0-------2---------------0-------0--|
|---------------0---2-------3-------3---3/5----------------|
|-------------------------------------------3-------0------|

--PART 2 (last time)

|--------------------------------|
|------------1--------------1----|
|--2-----2--------------2--------|
|------0--------------0----------|
|-----------------1-------1---0--|
|--1-------1---3-----------------|

|--------------------------------|
|------------1--------------1----|
|--------2--------------2--------|
|------0--------------0----------|
|-----------------1-------1---0--|
|--1-------1---3-----------------|

|--------------------------------|
|------------1--------------1----|
|--------2--------------2--------|
|------0--------------0----------|
|-----------------1-------1---0--|
|--1-------1---3-----------------|

|--------------------------------|
|--1---------1--------------1----|
|--------2--------------2--------|
|------0--------------0-------0--|
|--1-------0---------------------|
|--------------1--3---3---3---0--|

|-------|
|-------|
|--/9---| *For this ending, only actually pluck the 0 and 7
|--/9---|  The two 9's should resonate naturally as you slide up
|--/7---|
|---0---|

THE END

b   - bend
r   - release
gb  - gradual bend
gr  - gradual release
h   - hammer on
p   - pull off
T   - trill
W   - whammy bar dive
\   - slide down
/   - slide up
x   - mute
X\  - pick slide
~~~ - vibrato
*7  - artificial harmonic
*7* - natural harmonic
... - palm mute
(0) - optional note
XXX - tremolo pick
alt - variation of riff>





Comments


Popular Smashing Pumpkins tabs & chords
1979 Bass Tabs
I Of The Mourning Bass Tabs
Rocket 2 Bass Tabs
Blank Page Chords
Astral Planes Tabs
Jennifer Ever Tabs
Out Of Focus 1 Tabs
Pale Horse Tabs
Rudolph The Red Nosed Reindeer 1 Tabs
Blue Skies Bring Tears Ukulele


Song lyrics



↑ Back to top | Tablatures and chords are parodies/interpretations of the original songs. You may use it for private study, scholarship, research or language learning purposes only
© 2014 AZChords.com Contact us | Privacy policy | DMCA | Add/correct tabs | Request tabs | Top 50 tabs