» » »

Adore Bass tabs (ver.1)

Artists:  A B C D E F G H I J K L M N O P Q R S T U V W X Y Z # 

Adore Bass tabs (ver.1)

Smashing Pumpkins
Rating:
0/5 (0 votes)

Hard to play? Try these video lessons and learn fast.
                Tuning: Gb Db Ab Eb

Riff 1
Gb|------------------|
Db|------------------|      x 10
Ab|------------------|
Eb |2-2--2-2-2-5-----|

Fill 1
(We must never be apart...)
Gb|-----------------------|
Db|-----------------------|      x 1
Ab|7-7-7-7----------------|
Eb|--------7-7-7-7--------|

Riff 1      x 1

Fill 1      x 1

Riff 2
Gb|------------------------------------------------|
Db|------------------------------------------------|      x 1                  
Ab|--------------4-4-4-4-5-5-5-5-------------------|
Eb|5-5-5-5-5-5-5-----------------7-7-7-7-5-5-5-5-5-|

Riff 1      x 8

Fill 1      x 1

Riff 1      x 1

Fill 1      x 1

Riff 2      x 1

no bass  

“In you I feel so hungry....”
Riff 1      x 2

Fill 1      x 1

guitar solo
Riff 2      x 2

Riff 1      x 

Fill 1      x 1

Riff 1      x

“In you I feel so dirty”
Riff 3 to end

Gb|------------------------------|
Db|------------------------------|
Ab|-----------------7-7-7--------|
Eb|2-2-2-5-7-5-2-2--------7-7-7--|
            
Hard to play? Try these video lessons and learn fast. | Correct




comments powered by Disqus
↑ Back to top | Tablatures and chords are parodies/interpretations of the original songs. You may use it for private study, scholarship, research or language learning purposes only