>
 >
99 Floors

99 Floors Guitar Tabs

Smashing Pumpkins - 99 Floors chords, tabs, tablatures, lyrics

Guitar lessons | Add/correct | Request | Top 50 tabs Artists:  A B C D E F G H I J K L M N O P Q R S T U V W X Y Z 0-9

99 Floors Guitar Tabs – Smashing Pumpkins

CD, Sheet music, Poster

Do you like 99 Floors? Share with your friends now
Tabs
***********************************************************************
-----------------------------------------------------------------------

--title: 99 Floors
--tuning: D A D G B E (capo 5th fret)


PART ONE

--INTRO

|-----------------------|
|-----------------------|
|-----------------------|
|-2h4-4-4-4-4s5-5-5-5s7-|
|-0-0-0-0-0-0-0-0-0-0-0-|
|-0-0-0-0-0-0-0-0-0-0-0-|  x3


|-----------------------|
|-----------------------|
|-----------------------|
|-2h4-4-4-4-4s5-5-5s4s2-|
|-0-0-0-0-0-0-0-0-0-0-0-|
|-0-0-0-0-0-0-0-0-0-0-0-|

|-----|
|-----|
|-----|
|-0-0-|
|-0h2-|
|-0-0-|  x4

|-------------------------|
|-------------------------|
|-------------------------|
|-4-4-2-2-0-0-4-4-2h4p2p0-|
|-0-0-0-0-0-0-0-0-0-0-0-0-|
|-0-0-0-0-0-0-0-0-0-0-0-0-|

|-----------------------|
|-----------------------|
|-----------------------|
|-2h4-4-4-4-4s5-5-5-5s7-|
|-0-0-0-0-0-0-0-0-0-0-0-|
|-0-0-0-0-0-0-0-0-0-0-0-|

|-----------------------|
|-----------------------|
|-----------------------|
|-2h4-4-4-4-4s5-5-5s4s2-|
|-0-0-0-0-0-0-0-0-0-0-0-|
|-0-0-0-0-0-0-0-0-0-0-0-|

|-----|
|-----|
|-----|
|-0-0-|
|-0h2-|
|-0-0-|  x4

|-------------------------|
|-------------------------|
|-------------------------|
|-4-4-2-2-0-0-4-4-2h4p2p0-|
|-0-0-0-0-0-0-0-0-0-0-0-0-|
|-0-0-0-0-0-0-0-0-0-0-0-0-|

|---------------------|
|---------------------|
|-2-2-----------------|
|-0-0-4-4-2-2-0-0-2h4-|
|-0-0-0-0-0-0-0-0-0-0-|
|-0-0-0-0-0-0-0-0-0-0-|  x3

|---------------------|
|---------------------|
|-2-2-4-4-2-2-0-0-2p0-|
|-0-0-0-0-0-0-0-0-0-0-|
|-0-0-0-0-0-0-0-0-0-0-|
|-0-0-0-0-0-0-0-0-0-0-|

|-----|
|-----|
|-----|
|-0-0-|
|-0h2-|
|-0-0-|  x4

|-------------------------|
|-------------------------|
|-------------------------|
|-4-4-2-2-0-0-4-4-5p4h5p0-|
|-0-0-0-0-0-0-0-0-0-0-0-0-|
|-0-0-0-0-0-0-0-0-0-0-0-0-|

|-------------------------|
|-------------------------|
|-------------------------|
|-4-4-2-2-4-4s5-5-5h7-7-7-|
|-0-0-0-0-0-0-0-0-0-0-0-0-|
|-0-0-0-0-0-0-0-0-0-0-0-0-|  x2

|-----------------|
|-----------------|
|-----------------|
|-2-2s4-4-5-5p4p0-|
|-0-0-0-0-0-0-0-0-|
|-0-0-0-0-0-0-0-0-|

|---------------|
|---------------|
|---------------|
|-2-2s4-4-5-5-4-|
|-0-0-0-0-0-0-0-|
|-0-0-0-0-0-0-0-|

--VERSE

|-----|
|-----|
|-----|
|-0-0-|
|-0h2-|
|-0-0-|  x4

|-------------------------|
|-------------------------|
|-------------------------|
|-4-4-2-2-0-0-4-4-5p4h5p0-|
|-0-0-0-0-0-0-0-0-0-0-0-0-|
|-0-0-0-0-0-0-0-0-0-0-0-0-|

|-----------------------|
|-----------------------|
|-----------------------|
|-2h4-4-4-4-4s5-5-5-5s7-|
|-0-0-0-0-0-0-0-0-0-0-0-|
|-0-0-0-0-0-0-0-0-0-0-0-|  x2

|-----|
|-----|
|-----|
|-0-0-|
|-0h2-|
|-0-0-|  x4

|-------------------------|
|-------------------------|
|-------------------------|
|-4-4-2-2-0-0-4-4-2h4p2p0-|
|-0-0-0-0-0-0-0-0-0-0-0-0-|
|-0-0-0-0-0-0-0-0-0-0-0-0-|

|-----------------------|
|-----------------------|
|-----------------------|
|-2h4-4-4-4-4s5-5-5-5s7-|
|-0-0-0-0-0-0-0-0-0-0-0-|
|-0-0-0-0-0-0-0-0-0-0-0-|  x6

|-----|
|-----|
|-----|
|-0-0-|
|-0h2-|
|-0-0-|  x4

|-------------------------|
|-------------------------|
|-------------------------|
|-4-4-2-2-0-0-4-4-5p4h5p0-|
|-0-0-0-0-0-0-0-0-0-0-0-0-|
|-0-0-0-0-0-0-0-0-0-0-0-0-|

|-----------------------|
|-----------------------|
|-----------------------|
|-2h4-4-4-4-4s5-5-5-5s7-|
|-0-0-0-0-0-0-0-0-0-0-0-|
|-0-0-0-0-0-0-0-0-0-0-0-|  x2

|-----|
|-----|
|-----|
|-0-0-|
|-0h2-|
|-0-0-|  x4

|-------------------------|
|-------------------------|
|-------------------------|
|-4-4-2-2-0-0-4-4-5p4h5p0-|
|-0-0-0-0-0-0-0-0-0-0-0-0-|
|-0-0-0-0-0-0-0-0-0-0-0-0-|

|---------------------|
|---------------------|
|-2-2-----------------|
|-0-0-4-4-2-2-0-0-2h4-|
|-0-0-0-0-0-0-0-0-0-0-|
|-0-0-0-0-0-0-0-0-0-0-|  x4

|-------------|
|-------------|
|-4-4-2-2-0-0-|
|-0-0-0-0-0-0-|
|-0-0-0-0-0-0-|
|-0-0-0-0-0-0-|

|-----|
|-----|
|-----|
|-0-0-|
|-0h2-|
|-0-0-----------------|  x4
|---------------------|
|---------------------|
|---------------------|
|-4-4-2-2h4s5-5-4-0---|
|-0-0-0-0-0-0-0-0-0---|
|-0-0-0-0-0-0-0-0-0---|

|---------------------|
|---------------------|
|-2-2-----------------|
|-0-0-4-4-2-2-0-0-2h4-|
|-0-0-0-0-0-0-0-0-0-0-|
|-0-0-0-0-0-0-0-0-0-0-|

|-------------|
|-------------|
|-2-2---------|
|-0-0-4-4-2-2-|
|-0-0-0-0-0-0-|
|-0-0-0-0-0-0-|

|-------------|
|-------------|
|-4-4-2-2-0-0-|
|-0-0-0-0-0-0-|
|-0-0-0-0-0-0-|
|-0-0-0-0-0-0-|

|-----|
|-----|
|-----|
|-0-0-|
|-0h2-|
|-0-0-|  x4

|-----------------|
|-----------------|
|-----------------|
|-4-4-2-2h4s5-5-4-|
|-0-0-0-0-0-0-0-0-|
|-0-0-0-0-0-0-0-0-|


--VERSE

|-----------------------|
|-----------------------|
|-----------------------|
|-2h4-4-4-4-4s5-5-5-5s7-|
|-0-0-0-0-0-0-0-0-0-0-0-|
|-0-0-0-0-0-0-0-0-0-0-0-|  x6

|-----|
|-----|
|-----|
|-0-0-|
|-0h2-|
|-0-0-|  x4

|-------------------------|
|-------------------------|
|-------------------------|
|-4-4-2-2-0-0-4-4-2h4p2p0-|
|-0-0-0-0-0-0-0-0-0-0-0-0-|
|-0-0-0-0-0-0-0-0-0-0-0-0-|

|-----------------------|
|-----------------------|
|-----------------------|
|-2h4-4-4-4-4s5-5-5-5s7-|
|-0-0-0-0-0-0-0-0-0-0-0-|
|-0-0-0-0-0-0-0-0-0-0-0-|

|-----------------------|
|-----------------------|
|-----------------------|
|-2h4-4-4-4-4s5-5-5s4s2-|
|-0-0-0-0-0-0-0-0-0-0-0-|
|-0-0-0-0-0-0-0-0-0-0-0-|

|-----|
|-----|
|-----|
|-0-0-|
|-0h2-|
|-0-0-|  x4

|-------------------------|
|-------------------------|
|-------------------------|
|-4-4-2-2-0-0-4-4-2h4p2p0-|
|-0-0-0-0-0-0-0-0-0-0-0-0-|
|-0-0-0-0-0-0-0-0-0-0-0-0-|

|---------------------|
|---------------------|
|-2-2-4-4-2-2-0-0-2p0-|
|-0-0-0-0-0-0-0-0-0-0-|
|-0-0-0-0-0-0-0-0-0-0-|
|-0-0-0-0-0-0-0-0-0-0-| x2

|-----------------------|
|-----------------------|
|-----------------------|
|-2h4-4-4-4-4s5-5-5s4s0-|
|-0-0-0-0-0-0-0-0-0-0-0-|
|-0-0-0-0-0-0-0-0-0-0-0-|

|---------------------|
|---------------------|
|-2-2-4-4-2-2-0-0-2p0-|
|-0-0-0-0-0-0-0-0-0-0-|
|-0-0-0-0-0-0-0-0-0-0-|
|-0-0-0-0-0-0-0-0-0-0-|

|-----|
|-----|
|-----|
|-0-0-|
|-0h2-|
|-0-0-|  x4

|-------------------------|
|-------------------------|
|-------------------------|
|-4-4-2-2-0-0-4-4-4h5p4p0-|
|-0-0-0-0-0-0-0-0-0-0-0-0-|
|-0-0-0-0-0-0-0-0-0-0-0-0-|  x2

|-------------------------|
|-------------------------|
|-------------------------|
|-4-4-2-2-0-0-4-4-2h4p2p0-|
|-0-0-0-0-0-0-0-0-0-0-0-0-|
|-0-0-0-0-0-0-0-0-0-0-0-0-|

|-------------------------|
|-------------------------|
|-------------------------|
|-4h5p4s2-0-0-4-4-4h5p4p0-|
|-0-0-0-0-0-0-0-0-0-0-0-0-|
|-0-0-0-0-0-0-0-0-0-0-0-0-|

|---------------------|
|---------------------|
|---------2-2---------|
|-2h4-0-0-0-0-4-2-0s4-|
|-0-0-0-0-0-0-0-0-0-0-|
|-0-0-0-0-0-0-0-0-0-0-|

|---------------------------|
|---------------------------|
|---------------------------|
|-2h4s5s4s2-2h4-5p4-2h4p2p0-|
|-0-0-0-0-0-0-0-0-0-0-0-0-0-|
|-0-0-0-0-0-0-0-0-0-0-0-0-0-| x2

gradually slow down

|-----------------------------------|
|-----------------------------------|
|-----------------------------------|
|-2h4-4s5p4s2-2h4-4-4-4-4s5-5-5-5s7-|
|-0-0-0-0-0-0-2h4-4-4-4-4s5-5-5-5s7-|
|-0-0-0-0-0-0-0-0-0-0-0-0-0-0-0-0-0-| x3

end first half of the song on

|-------|
|-------|
|-------|
|-5p4p0-|
|-0-0-0-|
|-0-0-0-|


PART TWO


--VERSE


|-------------------------------|
|-------3-3---------------------|
|-------0h2---------------------|
|-----------0-0-0-0-0-0-0-0-----|
|-----------0-0-0h2-2-2-0-0-----|
|-0--0------0-0-0-0-0-0-0-3b----|  x12

--PRECHORUS

|---------------|
|-3----3--------|
|-0----0--------|
|-0----0----0-0-|
|-3----2----0h2-|
|-----------0-0-|

|-------------------------------|
|-------3-3---------------------|
|-------0h2---------------------|
|-----------0-0-0-0-0-0-0-0-----|
|-----------0-0-0h2-2-2-0-0-----|
|-0--0------0-0-0-0-0-0-0-3b----|

--CHORUS

|----------------|
|-3---3-3--3--3--|
|-0---0-0--0--0--|
|-0---0-0--0-----|
|-2---0-3--2-----|
|-0--------------|

|-------------------------------|
|-------3-3---------------------|
|-------0h2---------------------|
|-----------0-0-0-0-0-0-0-0-----|
|-----------0-0-0h2-2-2-0-0-----|
|-0--0------0-0-0-0-0-0-0-3b----|

|----------------|
|-3---3-3--3--3--|
|-0---0-0--0--0--|
|-0---0-0--0-----|
|-2---0-3--2-----|
|-0--------------|


--VERSE

	Enter Harmonica

|-------------------------------|
|-------3-3---------------------|
|-------0h2---------------------|
|-----------0-0-0-0-0-0-0-0-----|
|-----------0-0-0h2-2-2-0-0-----|
|-0--0------0-0-0-0-0-0-0-3b----|

	Enter Full Band

|-------------------------------|
|-------3-3---------------------|
|-------0h2---------------------|
|-----------0-0-0-0-0-0-0-0-----|
|-----------0-0-0h2-2-2-0-0-----|
|-0--0------0-0-0-0-0-0-0-3b----|  x8


--PRECHORUS

|---------------|
|-3----3--------|
|-0----0--------|
|-0----0----0-0-|
|-3----2----0h2-|
|-----------0-0-|

|-----------------------|
|-------3-3-------------|
|-------0h2-------------|
|-----------0-0-0-0-0-0-|
|-----------0-0-0h2-2-2-|
|-0--0------0-0-0-0-0-0-|

--CHORUS

|----------------|
|-3---3-3--3--3--|
|-0---0-0--0--0--|
|-0---0-0--0-----|
|-2---0-3--2-----|
|-0--------------|

|-----------------------|
|-------3-3-------------|
|-------0h2-------------|
|-----------0-0-0-0-0-0-|
|-----------0-0-0h2-2-2-|
|-0--0------0-0-0-0-0-0-|

|----------------|
|-3---3-3--3--3--|
|-0---0-0--0--0--|
|-0---0-0--0-----|
|-2---0-3--2-----|
|-0--------------|


--VERSE

|-------------------------------|
|-------3-3---------------------|
|-------0h2---------------------|
|-----------0-0-0-0-0-0-0-0-----|
|-----------0-0-0h2-2-2-0-0-----|
|-0--0------0-0-0-0-0-0-0-3b----|  x4


--INTERLUDE

|------------|
|-3-3-3-3----|
|-2-0-2-0----|
|------------|
|------------|
|------------|  x3

|-----------------------|
|-3-3-3-3-3-3-3-3-3-3-3-|
|-0-0-0-0-0-0-0-0-0-0-0-|
|-0-0-0-0-0-0-0-0-0-0-0-|
|-2-2-2-2-2-2p0-0-0-0-0-|
|-----------------------|


--VERSE

|-------------------------------|
|-------3-3---------------------|
|-------0h2---------------------|
|-----------0-0-0-0-0-0-0-0-----|
|-----------0-0-0h2-2-2-0-0-----|
|-0--0------0-0-0-0-0-0-0-3b----|  x4


PART THREE

--OUTRO

|---------------------|
|---------------------|
|-2-2-----------------|
|-0-0-4-4-2-2-0-0-2h4-|
|-0-0-0-0-0-0-0-0-0-0-|
|-0-0-0-0-0-0-0-0-0-0-|  x3

|-----------------------------------|
|-----------------------------------|
|-2-2---------4-2-0-----------------|
|-0-0-4-4-2-2-0-0-0-0-0-0-0-0-0-0-0-|
|-0-0-0-0-0-0-0-0-0-0h2-0h2-0h2-0h2-|
|-0-0-0-0-0-0-0-0-0-0-0-0-0-0-0-0-0-|

|-----------------|
|-----------------|
|-----------------|
|-4-4-2h4s5-4p2p0-|
|-0-0-0-0-0-0-0-0-|
|-0-0-0-0-0-0-0-0-|

|---------------------|
|---------------------|
|-2-2-----------------|
|-0-0-4-4-2-2-0-0-2h4-|
|-0-0-0-0-0-0-0-0-0-0-|
|-0-0-0-0-0-0-0-0-0-0-|  x2

|-----------------------------------|
|-----------------------------------|
|-2-2---------4-2-0-----------------|
|-0-0-4-4-2-2-0-0-0-0-0-0-0-0-0-0-0-|
|-0-0-0-0-0-0-0-0-0-0h2-0h2-0h2-0h2-|
|-0-0-0-0-0-0-0-0-0-0-0-0-0-0-0-0-0-|

|-----------------|
|-----------------|
|-----------------|
|-4-4-2h4s5-4p2p0-|
|-0-0-0-0-0-0-0-0-|
|-0-0-0-0-0-0-0-0-|

|---------------------|
|---------------------|
|-2-2-----------------|
|-0-0-4-4-2-2-0-0-2h4-|
|-0-0-0-0-0-0-0-0-0-0-|
|-0-0-0-0-0-0-0-0-0-0-|

|-----------------------------------|
|-----------------------------------|
|-2-2---------4-2-0-----------------|
|-0-0-4-4-2-2-0-0-0-0-0-0-0-0-0-0-0-|
|-0-0-0-0-0-0-0-0-0-0h2-0h2-0h2-0h2-|
|-0-0-0-0-0-0-0-0-0-0-0-0-0-0-0-0-0-|

|-----------------|
|-----------------|
|-----------------|
|-4-4-2h4s5-4p2p0-|
|-0-0-0-0-0-0-0-0-|
|-0-0-0-0-0-0-0-0-|

|---------------------|
|---------------------|
|-2-2-----------------|
|-0-0-4-4-2-2-0-0-2h4-|
|-0-0-0-0-0-0-0-0-0-0-|
|-0-0-0-0-0-0-0-0-0-0-|  x3

|-----------------------------------|
|-----------------------------------|
|-2-2---------4-2-0-----------------|
|-0-0-4-4-2-2-0-0-0-0-0-0-0-0-0-0-0-|
|-0-0-0-0-0-0-0-0-0-0h2-0h2-0h2-0h2-|
|-0-0-0-0-0-0-0-0-0-0-0-0-0-0-0-0-0-|

|-------------------|
|-------------------|
|-------------------|
|-4-4-2-2-0-0-4p2p0-|
|-0-0-0-0-0-0-0-0-0-|
|-0-0-0-0-0-0-0-0-0-|

|---------------------|
|---------------------|
|-2-2-----------------|
|-0-0-4-4-2-2-0-0-2h4-|
|-0-0-0-0-0-0-0-0-0-0-|
|-0-0-0-0-0-0-0-0-0-0-|  x3

|---------------|
|---------------|
|-2-2---------2-|
|-0-0-4-4-2-2-0-|
|-0-0-0-0-0-0-0-|
|-0-0-0-0-0-0-0-|

-----------------------------------------------------------------------
***********************************************************************





Comments


Popular Smashing Pumpkins tabs & chords
Speed Kills Bass Tabs
To Sheila 1 Bass Tabs
Appels + Oranjes Chords
Mayonaise 1 Chords
Luna Drum Tabs
Jupiter's Lament 1 Tabs
Quiet 2 Tabs
Stand Inside Your Love 1 Tabs
Thirty Three Tabs
To Forgive 1 Tabs


Song lyrics



↑ Back to top | Tablatures and chords are parodies/interpretations of the original songs. You may use it for private study, scholarship, research or language learning purposes only
© 2014 AZChords.com Contact us | Privacy policy | DMCA | Add/correct tabs | Request tabs | Top 50 tabs