» » »

Slick Shoes, Angel Tabs (ver.2)

Artists:  A B C D E F G H I J K L M N O P Q R S T U V W X Y Z # 

Angel Tabs (ver.2)

Slick Shoes Tabs
 Rating:
4/5 (4 votes)
Angel lessons Tabs too difficult? Try these video lessons and learn fast
1
                 BAND:SLICK SHOES
 ENTERED BY: MIKE .T.
  "HIS IS ALL THAT I KNOW OF THE song so try itAND JESUS LOVES YOU!!!!!"

   

G--2-----3-4-3----3-4-3-----3-4-3---
D--4-----X-X-X-4--X-X-X-2---X-X-X-4-
A--4-----1-2-1-4--1-2-1-2---1-2-1-4-
E--------------2--------0---------2-

                                                                                 X2     

G--8-8-8-8----11-11-11----8-8-8-8----6-6----4----4-4-4----8-8----6----6-6-6-6-6-6-
D--X-X-X-X-----X--X--X----X-X-X-X----X-X----X----X-X-X----X-X----X----X-X-X-X-X-X-
A--6-6-6-6-----9--9--9----6-6-6-6----4-4----2----2-2-2----6-6----4----4-4-4-4-4-4-


CHORUS                                                                    X3
         AND....WHEN......        SLEEP.....       ALL....     SEE...
G--9----9-9-9----11---11-11-11---13---13-13-13----11--111111---9----999-
D--X----X-X-X----X----X--X--X----X----X--X--X-----X---X-X-X----X----XXX-
A--7----7-7-7----9----9--9--9----11---11-11-11----9---9-9-9----7----777-


BRIDGE

A--2-1-2-4-2-1---2-1-2-4-2-1---2-1-2-4-2-1---2-1-2-4

===========

#------------Created with Taborama Tab Creator-----------------#


Instrument: 6 String Guitar


Tuning: Standard (E A D G B E)

Key:
~ = let ring for like a second or so

This is the right intro, with some distortion it sounds exactly the same 
as the real song


E|-------------------------------------------------------------------||
B|-------------------------------------------------------------------||
G|-------------------------------------------------------------------||
D|-9~~-8-9-8-4~--8-9-8-2--9-8----------------------------------------||
A|-------------------------------------------------------------------||
E|-------------------------------------------------------------------||
            
Submit corrections

comments powered by Disqus
↑ Back to top | Slick Shoes Tabs for Angel. Lyrics for acoustic guitar and electric guitar. 1 Tablatures and chords are parodies/interpretations of the original songs. You may use it for private study, scholarship, research or language learning purposes only