>
 >
Angel

Angel Guitar Tabs

Slick Shoes - Angel chords, tabs, tablatures, lyrics

Guitar lessons | Add/correct | Request | Top 50 tabs Artists:  A B C D E F G H I J K L M N O P Q R S T U V W X Y Z 0-9

Angel Guitar Tabs – Slick Shoes

CD, Sheet music, Poster

Do you like Angel? Share with your friends now
Bass TabsBass Tabs v2TabsTabs v2Tabs v3
I have been looking all over the internet for a correct tab of this song.
A lot of people have come close and thanks to all of you.
But I had to go and do this the old fashioned way.
I hope this helps. The album version of this song is dubbed with many guitars
(much like Adams Song by Blink 182 is)
but I minimized it to 3.
Anyway it is 100 percent right and
Anyway I have the whole song tabbed out, as well as the lyrics,
with some chords I use for an acoustic version when playing live.
The chords aren't all correct, I am well aware of it.
They just sound good on an acoustic when you're singing.

TUNING: E STANDARD

This is the bass intro, if you want to learn it on guitar.
If you want to play it on a bass just drop down two strings
and add two to the frets.


e----------------------------------------------------------------------------|
b----------------------------------------------------------------------------|
g----------------------------------------------------------------------------|
d----------------------------------------------------------------------------|
a-6---6---6--4---4---4-2----2----2-1----1---1-2---2---2-1----1---1-2---2---2-|
E--7-7-7-7----6-6-6-6---4-4--4-4----2-2--2-2---0-0-0-0---2-2--2-2---0-0-0-0--|


e------------|
b------------|
g------------|
d------------|
a----2-1---1-|
E-4-4---2-2--|


This is the guitar part in the intro.
It's played after the bass riff goes through one time.
I play this with a nice distortion on it.
Figure out the rhythm yourself by listening to the song.
As stated earlier there are multiple guitars so this may be difficult for you.
Just practice it until you have the hang of it.


First Guitar
e-----------------------|
b-0---------------------|
g-4-3-4-3---3-4-3-------|
d-x-x-x-x-4-x-x-x-2-6-4-|
a-2-1-2-1-4-1-2-1-2-6-4-|
E---------2-------0-4-2-|


Second Guitar
(almost not noticeable at all.
But pay attention to detail and you will hear it.)
e-----------------0-----|
b-0---------------0-----|
g-4-3h4p3-3-3h4p3-1-4-3-|
d---------4-------2-6-4-|
a-----------------2-----|
E-----------------0-----|


Third Guitar (He hits the chords one time each and lets them ring out.
Like I said though, figure out the rhythm.)
e-----------|
b-----------|
g-4-9-13-11-|
d-x-x-x--x--|
a-2-7-11-9--|
E---0-------|


This is the second part of the intro.
(It's starts on the bass riff's third run through)


First Guitar
e----------------------------------------------------------------------|
b----------------------------------------------------------------------|
g-8-8-8--11-11-11-11-8-8-8-8-6-6-6-6-6-6-6-6-4-4-4-4-8-8-8-8-6-6-6-6---|
d-x-x-x--x--x--x--x--x-x-x-x-x-x-x-x-x-x-x-x-x-x-x-x-x-x-x-x-x-x-x-x---|
a-6-6-6--9--9--9--9--6-6-6-6-4-4-4-4-4-4-4-4-2-2-2-2-6-6-6-6-4-4-4-4---|
E----------------------------------------------------------------------|


Second Guitar
e----------------------------------------------------------------------|
b----------------------------------------------------------------------|
g-4-4-4--11-11-11-11-8-8-8-8-6-6-6-6-6-6-6-6-4-4-4-4-8-8-8-8-6-6-6-6---|
d-x-x-x--x--x--x--x--x-x-x-x-x-x-x-x-x-x-x-x-x-x-x-x-x-x-x-x-x-x-x-x---|
a-2-2-2--9--9--9--9--6-6-6-6-4-4-4-4-4-4-4-4-2-2-2-2-6-6-6-6-4-4-4-4---|
E----------------------------------------------------------------------|


Third Guitar
(start the first time with a pick scrape on the a string while holding 6th fret)
e------------------------------------------------------------------|
b------------------------------------------------------------------|
g-8-8-8-11-11-11-8-8-8-6-6-6-6-6-6-4-4-4-8-8-8-6-6-6-6-------------|
d-x-x-x-x--x--x--x-x-x-x-x-x-x-x-x-x-x-x-x-x-x-x-x-x-x-------------|
a-6-6-6-9--9--9--6-6-6-4-4-4-4-4-4-2-2-2-6-6-6-4-4-4-4----4--6-6h7-|
E------------------------------------------------------7-7--7-7----|
PM                                                     ............


Verse.
(This is where the other guitars recorded on the album version become more noticeable.)


First Guitar
e-----------------------------------------------------------------|
b-----------------------------------------------------------------|
g-4-4-4-4-4-4-4-4-------------------------------------------------|
d-4-4-4-4-4-4-4-4-4-4-4-4-4-4-4-4-2-2-2-2-2-2-2-2-2-2-2-2-2-2-2-2-|
a-2-2-2-2-2-2-2-2-4-4-4-4-4-4-4-4-2-2-2-2-2-2-2-2-2-2-2-2-2-2-2-2-|
E-----------------2-2-2-2-2-2-2-2-0-0-0-0-0-0-0-0-0-0-0-0-0-0-0-0-|


Second Guitar
e---------------------------------|
b---------------------------------|
g---------------------------------|
d---------------------------------|
a-----6-----6-----6-----------9-6-|
E-7-7-7-7-7-7-7-7-7-7-7-7-7-7-7-7-|
PM.....................   ........


Third Guitar
e-------------------------------------------------------------------------|
b-------------------------------------------------------------------------|
g-4-4-4-4-4-4-4-4-11-11-11-11-11-11-11-11-8-8-8-8-8-8-8-8-6-6-6-6-3-3-3-3-|
d-4-4-4-4-4-4-4-4-11-11-11-11-11-11-11-11-8-8-8-8-8-8-8-8-6-6-6-6-3-3-3-3-|
a-2-2-2-2-2-2-2-2-9--9--9--9--9--9--9--9--6-6-6-6-6-6-6-6-4-4-4-4-1-1-1-1-|
E-------------------------------------------------------------------------|
PM........................................................................


e--------------------------------------------------------------------|
b--------------------------------------------------------------------|
g--------------------------------------------------------------------|
d-4-4-4-4-4-4-4-4-11-11-11-11-11-11-11-11-11-------------------------|
a-2-2-2-2-2-2-2-2-9--9--9--9--9--9--9--9--9--6-6-6-6-6-6-6-6-4-4-4-4-|
E--------------------------------------------------------------------|
PM...................................................................

e---------------------------------------------------------------------|
b---------------------------------------------------------------------|
g---------------------------------------------------------------------|
d-1-1-1-1-4-4-4-4-4-4-4-4-11-11-11-11-11-11-11-11---------------------|
a---------2-2-2-2-2-2-2-2-9--9--9--9--9--9--9--9--6-6-6-6-6-6-6-6-4-4-|
E---------------------------------------------------------------------|
PM....................................................................

e-------------|
b-------------|
g-------------|
d-------------|
a-4-4-1-1-1-1-|
E-------------|
PM............

e-----------------------------|
b-----------------------------|
g-4-4-4--(3)3h4p3---------4-3-|
d-4-4-4-4--------4-(2)2h4-4-4-|
a-2-2-2-------------------2-1-|
E-----------------------------|


Chorus.


First Guitar
e-----------------------------------------------------------------|
b-----------------------------------------------------------------|
g-9-9-9-9-9-9-9-9-11-11-11-11-11-11-11-11-13-13-13-13-13-13-13-13-|
d-9-9-9-9-9-9-9-9-11-11-11-11-11-11-11-11-13-13-13-13-13-13-13-13-|
a-7-7-7-7-7-7-7-7-9--9--9--9--9--9--9--9--11-11-11-11-11-11-11-11-|
E-----------------------------------------------------------------|


e-----------------------------------------|
b-----------------------------------------|
g-11-11-11-11-11-11-11-11-9-9-9-9-9-9-9-9-|
d-11-11-11-11-11-11-11-11-9-9-9-9-9-9-9-9-|
a-9--9--9--9--9--9--9--9--7-7-7-7-7-7-7-7-|
E-----------------------------------------|

Second Guitar
(First Guitar is playing eighth notes
Second Guitar is playing quarter notes)
e-----------------------------------------------------|
b-----------------------------------------------------|
g-9-9-9-9-11-11-11-11-13-13-13-13-11-11-11-11-9-9-9-9-|
d-x-x-x-x-x--x--x--x--x--x--x--x--x--x--x--x--x-x-x-x-|
a-7-7-7-7-9--9--9--9--11-11-11-11-9--9--9--9--7-7-7-7-|
E-----------------------------------------------------|


e-----------------------------------------------------------------|
b-----------------------------------------------------------------|
g-------9(x8)-8-(x8)-6-(x8)-11-(x8)-4-(x8)-9-(x8)-8-(x8)-6-(x8)-4-|
d-9-----x-----x------x------x-------x------x------x------x------4-|
a-9-----7-----6------4------9-------2------7------6------4------2-|
E-7---------------------------------------------------------------|

Third Guitar (This comes in after the other guitars
play the chords through once)
e---------------------------------------------------------------|
b---------------------------------------------------------------|
g-9-9-9-9-8-8-8-8-6-6-6-6-6-6-6-6-11-11-11-11-9-9-9-9-8-8-8-8-4-|
d-x-x-x-x-x-x-x-x-x-x-x-x-x-x-x-x-x--x--x--x--x-x-x-x-x-x-x-x-4-|
a-7-7-7-7-6-6-6-6-4-4-4-4-4-4-4-4-9--9--9--9--7-7-7-7-6-6-6-6-2-|
E---------------------------------------------------------------|

e-------------------------|
b-------------------------|
g-------------------------|
d-9-9-9-2-2-2-6-6-6-4-4-4-|
a-9-9-9-2-2-2-6-6-6-4-4-4-|
E-7-7-7-0-0-0-4-4-4-2-2-2-|

Verse 2.


First Guitar
e------------------------------|
b------------------------------|
g-9---------11------9-------11-|
d-x-9-8-6h8-x--9-11-x-9-8---11-|
a-7---------9-------7-----9-9--|
E------------------------------|


Second Guitar
e-----------------------------------------------------------------|
b-----------------------------------------------------------------|
g-4-4-4-4-4-4-4-4-------------------------------------------------|
d-4-4-4-4-4-4-4-4-4-4-4-4-4-4-4-4-2-2-2-2-2-2-2-2-2-2-2-2-2-2-2-2-|
a-2-2-2-2-2-2-2-2-4-4-4-4-4-4-4-4-2-2-2-2-2-2-2-2-2-2-2-2-2-2-2-2-|
E-----------------2-2-2-2-2-2-2-2-0-0-0-0-0-0-0-0-0-0-0-0-0-0-0-0-|


Third Guitar
e---------------------------------------------------------|
b---------------------------------------------------------|
g-----------------11-11-11-11-11-11-11-11-9-9-9-9-9-9-9-9-|
d-----------------11-11-11-11-11-11-11-11-9-9-9-9-9-9-9-9-|
a-6-6-6-6-6-6-6-6-9--9--9--9--9--9--9--9--7-7-7-7-7-7-7-7-|
e-7-7-7-7-7-7-7-7-----------------------------------------|

e--------------------------------------------------------------------|
b--------------------------------------------------------------------|
g--------------------------------------------------------------------|
d-4-4-4-4-4-4-4-4-11-11-11-11-11-11-11-11-11-------------------------|
a-2-2-2-2-2-2-2-2-9--9--9--9--9--9--9--9--9--6-6-6-6-6-6-6-6-4-4-4-4-|
E--------------------------------------------------------------------|
PM...................................................................

e---------------------------------------------------------------------|
b---------------------------------------------------------------------|
g---------------------------------------------------------------------|
d---------4-4-4-4-4-4-4-4-11-11-11-11-11-11-11-11---------------------|
a-1-1-1-1-2-2-2-2-2-2-2-2-9--9--9--9--9--9--9--9--6-6-6-6-6-6-6-6-4-4-|
E---------------------------------------------------------------------|
PM....................................................................

e-------------|
b-------------|
g-------------|
d-------------|
a-4-4-1-1-1-1-|
E-------------|
PM............

e----------|
b----------|
g-11-11-11-|
d-11-11-11-|
a-9--9--9--|
E----------|


Outro.


First Guitar
(Decrescendo.
If you don't know what it means
it's decrease volume and fade out.)
e---------------------------------|
b---------------------------------|
g-4-4-4-4-4-4-4-4-4-4-4-4-4-4-4-4-|
d-x-x-x-x-x-x-x-x-x-x-x-x-x-x-x-x-|
a-2-2-2-2-2-2-2-2-2-2-2-2-2-2-2-2-|
e---------------------------------|

Second Guitar
(This is decrescendo as well,
but it's also a call and response technique.
The second guitar will hit the first chord
and the third guitar will hit the second chord.)
e---
b---
g-4-
d-4-
a-2-
E---

Third Guitar
e----
b----
g-11-
d-11-
a-9--
E----


SONG ORDER:

Intro.
Verse 1.
Chorus.
Verse 2.
Chorus.
Chorus.
Outro.

LYRICS and CHORDS for ACOUSTIC

B5      F#5       E5         F#5           B5
Looking into your eyes I see all I want to be
           F#5         E5
And I don't want it to end
B5              F#5                E5    F#5
If I could only put into words the way I see you
B5            F#5           E5
I only know I have an angel with me now


E5              F#5         Ab5        F#5
And when I fall asleep your all that I see
E5           F#5          Ab5          F#5
You're in my thoughts and all of my prayers
E5             F#5           Ab5         F#5
I wish I could mean all that you mean to me
B5Ab5B5C#5          E5 F#5
My angel without wings (My angel)


B5         F#5       E5           F#5
I wish you could see all that you mean to me
B5                F#5      E5      F#5
But I could never find the words to tell you


     E5           F#5          Ab5        F#5
That when I fall asleep you're all that I see
E5           F#5          Ab5       F#5
You're in my thoughts and all of my prayers
E5             F#5           Ab5         F#5
I wish I could mean all that you mean to me
    E5           F#5        Ab5        F#5
And when I fall asleep your all that I see.
E5           F#5          Ab5          F#5
You're in my thoughts and all of my prayers.
E5             F#5           Ab5         F#5
I wish I could mean all that you mean to me.
B5
My angel without wings.




Thats the whole song. It didn't take too long to figure it out,
but it took forever to tab it.
If you have any questions, comments, concerns, or corrections;
send me an email.

And just so everyone knows what kind of setup
I used to get the tone while tabbing this.
I used a Tom Delonge Signature Epiphone es-33
with a Gibson Dirty Fingers pickup in the bridge position
through a Marshall Full stack
with the gain at about 7 to 8.
Make sure that your mid tones are set
just a little bit higher than the bass and treble too.
Good luck and I hope you enjoyed my tab.

-Davin





Comments


Popular Slick Shoes tabs & chords
Angel Bass Tabs
Angel 1 Bass Tabs
Fall Bass Tabs
For Better, For Worse 1 Bass Tabs
Always There Tabs
Bounce Intro Tabs
Darko Tabs
For Better For Worse (Intro) Tabs
Hide & Seek 1 Tabs
Not That Far Tabs


Song lyrics



↑ Back to top | Tablatures and chords are parodies/interpretations of the original songs. You may use it for private study, scholarship, research or language learning purposes only
© 2014 AZChords.com Contact us | Privacy policy | DMCA | Add/correct tabs | Request tabs | Top 50 tabs