>
 >
Wicked 1

Wicked 1 Guitar Tabs

Slayer - Wicked 1 chords, tabs, tablatures, lyrics

Guitar lessons | Add/correct | Request | Top 50 tabs Artists:  A B C D E F G H I J K L M N O P Q R S T U V W X Y Z 0-9

Wicked 1 Guitar Tabs – Slayer

CD, Sheet music, Poster

Do you like Wicked 1? Share with your friends now
Bass TabsTabsTabs v2
slayer


solo 1
eb:----------------------------------------------------------------------------------------|
Bb:----------------------------------------------------------------------------4b-4b-4b-4b-|
Gb:----------------------------------------------3/5-4~~~~---------------------3b-3b-3b-3b-|
Db:-445555555-4455-77p5p4--2-5~~~~-~~-~~--445754------------4457p5p4-2-5~~~-~--------------|
Ab:----------------------------------------------------------------------------------------|
Db:----------------------------------------------------------------------------------------|


solo 2
:-------------------------------------------------------------------------------------|
:-------------------------------------------------------------------------------------|
:-----------------9-10-11/15\11-10--11-12-14-12-11-12-11-12--9-10-12-10-11-12-14-12-11|
:----------8-9-11---------------------------------------------------------------------|
:---7-9/10----------------------------------------------------------------------------|
:10-----------------------------------------------------------------------------------|


:-----------------------------------|
:----12b~~~-~~~--16-17-19-17-16-----|
:9-7----------------------------19\-|
:-----------------------------------|
:-----------------------------------|
:-----------------------------------|



:------------------------------------------------21b~~~-24b-----|
:--------------------------------13b-15b-17b-19b------------20\-|
:7/9-999-888-9/12-1212-11-11-11--12b-14b-17b-18b----------------|
:---------------------------------------------------------------|
:---------------------------------------------------------------|
:---------------------------------------------------------------|



:171415141517etc-141514------------------------------------------------------------|
:-----------------------181516181615-141517-151715-141514--------------------------|
:---------------------------------------------------------161719171617151213151317-|
:----------------------------------------------------------------------------------|
:----------------------------------------------------------------------------------|
:----------------------------------------------------------------------------------|



:-------------------------------------------|
:-------------------------------------------|
:-1310-11-13-11-----------------------------|
:---------------151213151312-14~~~-13~~-----|
:---------------------------------------14\-|
:-------------------------------------------|





Comments


Popular Slayer tabs & chords
God Sends Death Bass Tabs
The Antichrist Drum Tabs
Angei Of Death Tabs
Crionics 1 Tabs
Dittohead Tabs
Epidemic 1 Tabs
Evil Has No 1 Tabs
Face The Slayer Tabs
Perversions Of Pain 3 Tabs
The Final Command Tabs


Song lyrics



↑ Back to top | Tablatures and chords are parodies/interpretations of the original songs. You may use it for private study, scholarship, research or language learning purposes only
© 2014 AZChords.com Contact us | Privacy policy | DMCA | Add/correct tabs | Request tabs | Top 50 tabs